PrimaNota.ru - самый крупный в мире бесплатный архив песенных текстов, аккордов, табулатур и нот


Groundhogs - Garden - аккорды и текст, таба, видео

Регистрация Запомнить меня
Войти через:  Facebook Google Twitter Vk Yandex Mail.ru

Groundhogs - Garden - аккорды и текст, таба, видео

Печатать
Просмотров: 107
Авторы музыки: Tony (T.S.) McPhee

Garden
Groundhogs
		   t. See http://www..net/faq/ for more information.                     #
#-----------------------------------------------------------------------------#



Garden by The Groundhogs
from the album Thank Christ For The Bomb
Tabbed by Malc Brookes (malc@malbro.demon.co.uk)


Tuning:
Standard, EADGBE.


Intro/main theme (play 4 times):
e|-------------------|---------------------|
B|-------------------|---------------------|
G|--5-2-4-5-----5----|--5p4-2-4-2-----2----|
D|--5-2-4-5---5------|--5p4-2-4-2---2------|
A|----------0-----0--|------------0-----0--|
E|-------------------|---------------------|


Verse:
    C       E           A
e|-------------------|-------------------|
B|-------------------|-------------------|
G|------5------------|------2-------2----|
D|----5---5-----2----|----2-------2------|
A|--3---------2---2--|--0-----0-0-----0--|
E|----------0--------|-------------------|


Main theme (play twice):


Main theme variation (play twice):
e|-------------------|---------------------|
B|--5-2-4-5-----5----|--5p4-2-4-2-----2----|
G|--5-2-4-5-----5----|--5p4-2-4-2-----2----|
D|--5-2-4-5---5------|--5p4-2-4-2---2------|
A|----------0-----0--|------------0-----0--|
E|-------------------|---------------------|


Bass riff (play 4 times)
e|-------------------|-------------------|
B|-------------------|-------------------|
G|-------------------|-------------------|
D|------2-5----------|--4h5p4-2----------|
A|--0-3--------------|----------3-0------|
E|-------------------|-------------------|


Main theme (play twice):


Verse:

Main theme (play twice):

Main theme variation (play twice):

Bass riff (play 14 times):

Main theme (play twice):


Repeat second verse:


Main theme (play twice):

Main theme variation (play twice):

Bass riff (play 8 times):


Ending:
e|-------------------|-------------------|
B|-------------------|-------------------|
G|-------------------|-------------------|
D|------2-5----------|--4h5p4-2----------|
A|--0-3--------------|----------3-0------|
E|-------------------|-------------------|


e|-------------------|-------------------|
B|-------------------|-------------------|
G|-------------------|-------------------|
D|------2-5----------|--4h5p4-2----------|
A|--0-3--------------|----------3-4------|
E|-------------------|-------------------|


e|-------------------|-------------------|
B|-------------------|-------------------|
G|-------------------|-------------------|
D|------2-5----------|--4h5p4-2----------|
A|--0-3--------------|----------3-0------|
E|-------------------|-------------------|


e|-------------------|-------------------|
B|-------------------|-------------------|
G|-------------------|-------------------|
D|------2-5----------|--4h5p4-2---2------|
A|--0-3--------------|----------3-4------|
E|-------------------|------------5------|



To reply via email remove the ox from my address.     
Добавлено: 17.10.2013
Другие материалы по этой песне:
  • Аккорды и текст

Страница создана 06.03.2012
http://primanota.ru/groundhogs/garden-chords.htm
Привет, Гость.
Предлагаем пройти революционный курс по гитаре.
Подарок от PrimaNota.Ru, забирай!