PrimaNota.ru - самый крупный в мире бесплатный архив песенных текстов, аккордов, табулатур и нот


Groovy Aardvark - Amphibiens - аккорды и текст, видео

Регистрация Запомнить меня
Войти через:  Facebook Google Twitter Vk Yandex Mail.ru

Groovy Aardvark - Amphibiens - аккорды и текст, видео

Печатать
Просмотров: 80
Уроки эстрадного вокала в Санкт-Петербурге
Amphibiens
Groovy Aardvark
Groovy Aardvark - Amphibiens
Album: Oryctérope
tab par Mathieu ^ÓMust41^Ô (mathieumg_186@hotmail.com)

pas pire comme toune... chus pas mal sur que c^Òest correct sauf pour le refrain ( on entend rien mais C po grave pask G ecrit la melodie fak sa fitte ben )
Ecoute-la comme faut avant de la jouer pask C un peu melant!

si tu utilise la tab sil t plait laisse moi un mail! ( j^Òaimerais le savoir si j^Òai pas fait cette tab pour rien! )

Intro ( joue chaque note une fois et laisse resonner )
|-----|-----------------------------------------------|
|-----|---------------------------------------*****---|
|-----|----------7----------5-7---5-----------5-7-----|
|-----|-7-9-10-7-7-9-10-9-7-5-7-9-5-7-9-7-9-7-5-7-----|
|--0--|-7-9-10-7-5-9-10-9-7-3-5-9-3-7-9-7-9-7-3-5-----|
|-----|-5-7-8--5---7-8--7-5-----7---5-7-5-7-5---------|
* la chus pas sur

Intro partie 2
|--------|
|--------|
|--------|
|--7-----|
|--7-x16-|
|--5-----|

Couplet ( chaque note deux fois )
|-----------|----------|
|-----------|----------|
|-----------|----------|
|--7-9-10-9-|-7-7-10-9-|x4
|--7-9-10-9-|-7-7-10-9-|
|--5-7-8--7-|-5-5-8--7-|

|-----------|---------|------------|----------|
|-----------|---------|------------|----------|
|---------7-|-9-9-9-9-|------------|----------|
|--7-9-10-7-|-9-9-9-9-|-7-9/10-9-7-|-7-7-10-9-|
|--7-9-10-5-|-7-7-7-7-|-7-9/10-9-7-|-7-7-10-9-|
|--5-7-8----|---------|-5-7/8--7-5-|-5-5-8--7-|

|-----------|---------|----------|---------------|
|-----------|---------|----------|---------------|
|---------7-|-9-9-9-9-|--------9-|-7/11-11-10-10-|
|--7-9-10-7-|-9-9-9-9-|-7-9-10-9-|-7/11-11-10-10-|
|--7-9-10-5-|-7-7-7-7-|-7-9-10-7-|-5/9--9--8--8--|
|--5-7-8----|---------|-5-7-8----|---------------|

Entre deux couplets
|-----------------|
|-----------------|
|-9-9-----9-9---7-|
|-9-9-7-7-9-9-7-7-| x4 puis un autre couplet
|-7-7-7-7-7-7-7-5-|
|-----5-5-----5---|
Refrain ( on entend rien fak j^Òai ecrit la melodie )
|----------------|--------------|-----------|---------|-------------|
|----------------|--------------|-----------|---------|-------------|
|----------------|------9-9-9-9-|--9/10\9-7-|-7/9\7-5-|-5/7\5-4-2---|
|-7-9-10---9-9-7-|--7-9-9-9-9-9-|--9/10\9-7-|-7/9\7-5-|-5/7\5-4-2---|
|-7-9-10---9-9-7-|--7-9-7-7-7-7-|--7/ 8\7-5-|-5/7\5-3-|-3/5\3-2-0---|
|-5-7-8----7-7-5-|--5-7---------|-----------|---------|-------------|

Break ( chaque note 4x )
|----------------------------|
|----------------------------|
|----------------------------|
|--7-7-8-7-8-7-8-10-7-7-7-7--|
|--7-7-8-7-8-7-8-10-7-7-7-7--|
|--5-5-5-5-5-5-5--8-5-5-5-5--|



     
Добавлено: 21.07.2013
Другие материалы по этой песне:
  • Аккорды и текст

Страница создана 21.07.2013
http://primanota.ru/groovy-aardvark/amphibiens-chords.htm
Привет, Гость.
Предлагаем пройти революционный курс по гитаре.
Подарок от PrimaNota.Ru, забирай!