PrimaNota.ru - самый крупный в мире бесплатный архив песенных текстов, аккордов, табулатур и нот


Groovie Ghoulies - To Go Home - аккорды и текст, видео

Регистрация Запомнить меня
Войти через:  Facebook Google Twitter Vk Yandex Mail.ru

Groovie Ghoulies - To Go Home - аккорды и текст, видео

Печатать
Просмотров: 98
To Go Home
Groovie Ghoulies
--------------------------------------------------------------------------------------------------
                             To go home - Groovie Ghoulies
--------------------------------------------------------------------------------------------------
Tabbed by:morciu
Email:pralea_man58@yahoo.co.uk

Tuning:standard


Intro
   
     G                       D                        C                         G
e|-----------------------------------------------------------------------------------------------|
B|-----------------------------------------------------------------------------------------------|
G|-----------------------7-7-7-7-7-7-7-7-7-7-7----5-5-5-5-5-5-5-5-5-5-5--------------------------|
D|5-5-5-5-5-5-5-5-5-5-5--7-7-7-7-7-7-7-7-7-7-7----5-5-5-5-5-5-5-5-5-5-5----5-5-5-5-5-5-5-5-5-5-5-|
A|5-5-5-5-5-5-5-5-5-5-5--5-5-5-5-5-5-5-5-5-5-5----3-3-3-3-3-3-3-3-3-3-3----5-5-5-5-5-5-5-5-5-5-5-|
E|3-3-3-3-3-3-3-3-3-3-3----------------------------------------------------3-3-3-3-3-3-3-3-3-3-3-|

Solo

e|-----------------------------------------------------------------------------------|
B|-----------------------------------------------------------------------------------|
G|----7-7---9-7------7-7---9-7-----------------------------------7-------------------|
D|--9-----9-----9--7-----7-----7-9-10-10-10-10-10-10-10-10-10-10----10-9-9-9-9-7-----|
A|-------------------------------------------------------------------------------10--|
E|-----------------------------------------------------------------------------------|

Verse

G
Hope maybe my mind don't slip
D
sailing on a sinking ship
C
into the sunset
G
in bed



G
Dark night on a long highway
D
Little lights in a house that say
C
somebody's staying
G
up late

Oh oh oh oh

Chorus

    C              D              G              C
e|---------------------------------------------------------------------------|
B|---------------------------------------------------------------------------|
G|--5-5-5-5-5-5----7-7-7-7-7-7-------------------5-5-5-5-5-5-----------------|
D|--5-5-5-5-5-5----7-7-7-7-7-7----5-5-5-5-5-5----5-5-5-5-5-5-----------------|
A|--3-3-3-3-3-3----5-5-5-5-5-5----5-5-5-5-5-5----3-3-3-3-3-3-----------------|
E|--------------------------------3-3-3-3-3-3--------------------------------|

    C              D              G              C                     G
e|----------------------------------------------------------------------------------------|
B|----------------------------------------------------------------------------------------|
G|--5-5-5-5-5-5----7-7-7-7-7-7-------------------5-5-5-5-5-5-5-5-5-5----------------------|
D|--5-5-5-5-5-5----7-7-7-7-7-7----5-5-5-5-5-5----5-5-5-5-5-5-5-5-5-5---5-5-5-5-5-5-5-5-5--|
A|--3-3-3-3-3-3----5-5-5-5-5-5----5-5-5-5-5-5----3-3-3-3-3-3-3-3-3-3---5-5-5-5-5-5-5-5-5--|
E|--------------------------------3-3-3-3-3-3--------------------------3-3-3-3-3-3-3-3-3--|

C        D
I'll be true to you oh
G                C
yeah, you know I will
C        D             G           C    C    C         G
I'll be true to you forever or until ......... I go home.


Verse

G
If I ever treated you mean
D
you know that it was only because
C
I was sorry I couldn't have you
G
for my own


G
I guess it's sort of funny now
D
Sort of like a plastic bunny;
C
imagination all twisted
G
with the past

oh oh oh oh


CHORUS

    C              D              G              C
e|---------------------------------------------------------------------------|
B|---------------------------------------------------------------------------|
G|--5-5-5-5-5-5----7-7-7-7-7-7-------------------5-5-5-5-5-5-----------------|
D|--5-5-5-5-5-5----7-7-7-7-7-7----5-5-5-5-5-5----5-5-5-5-5-5-----------------|
A|--3-3-3-3-3-3----5-5-5-5-5-5----5-5-5-5-5-5----3-3-3-3-3-3-----------------|
E|--------------------------------3-3-3-3-3-3--------------------------------|

    C              D              G              C                     G
e|----------------------------------------------------------------------------------------|
B|----------------------------------------------------------------------------------------|
G|--5-5-5-5-5-5----7-7-7-7-7-7-------------------5-5-5-5-5-5-5-5-5-5----------------------|
D|--5-5-5-5-5-5----7-7-7-7-7-7----5-5-5-5-5-5----5-5-5-5-5-5-5-5-5-5---5-5-5-5-5-5-5-5-5--|
A|--3-3-3-3-3-3----5-5-5-5-5-5----5-5-5-5-5-5----3-3-3-3-3-3-3-3-3-3---5-5-5-5-5-5-5-5-5--|
E|--------------------------------3-3-3-3-3-3--------------------------3-3-3-3-3-3-3-3-3--|

C        D
I'll be true to you oh
G                C
yeah, you know I will
C        D             G           C    C    C         G
I'll be true to you forever or until ......... I go home.


Verse

G
I have a deep respect for you,
D
usually reserved for the dead
C
Hanging on every word
G
that you said


G
It's nice to have a friend like you
D
Even though you're not around,
C
you're closer to me
G
than most


G
Kids can say the darndest things
D
Hollow hopes and golden dreams
C
leave everything empty
G
in the end.

oh oh oh oh


CHORUS

    C              D              G              C
e|---------------------------------------------------------------------------|
B|---------------------------------------------------------------------------|
G|--5-5-5-5-5-5----7-7-7-7-7-7-------------------5-5-5-5-5-5-----------------|
D|--5-5-5-5-5-5----7-7-7-7-7-7----5-5-5-5-5-5----5-5-5-5-5-5-----------------|
A|--3-3-3-3-3-3----5-5-5-5-5-5----5-5-5-5-5-5----3-3-3-3-3-3-----------------|
E|--------------------------------3-3-3-3-3-3--------------------------------|

    C              D              G              C                     G
e|----------------------------------------------------------------------------------------|
B|----------------------------------------------------------------------------------------|
G|--5-5-5-5-5-5----7-7-7-7-7-7-------------------5-5-5-5-5-5-5-5-5-5----------------------|
D|--5-5-5-5-5-5----7-7-7-7-7-7----5-5-5-5-5-5----5-5-5-5-5-5-5-5-5-5---5-5-5-5-5-5-5-5-5--|
A|--3-3-3-3-3-3----5-5-5-5-5-5----5-5-5-5-5-5----3-3-3-3-3-3-3-3-3-3---5-5-5-5-5-5-5-5-5--|
E|--------------------------------3-3-3-3-3-3--------------------------3-3-3-3-3-3-3-3-3--|


C        D
I'll be true to you oh
G                C
yeah, you know I will
C        D             G           C    C    C         G
I'll be true to you forever or until ......... I go home.


Verse

G
Hope maybe my mind don't slip
D
sailing on a sinking ship
C
into the sunset
G
in bed

G
Gee it's great to be alive
D
Takes the skin right off my hide
C
To know that we'll have to give it all up
G
Some day

oh oh oh oh

CHORUS

    C              D              G              C
e|---------------------------------------------------------------------------|
B|---------------------------------------------------------------------------|
G|--5-5-5-5-5-5----7-7-7-7-7-7-------------------5-5-5-5-5-5-----------------|
D|--5-5-5-5-5-5----7-7-7-7-7-7----5-5-5-5-5-5----5-5-5-5-5-5-----------------|
A|--3-3-3-3-3-3----5-5-5-5-5-5----5-5-5-5-5-5----3-3-3-3-3-3-----------------|
E|--------------------------------3-3-3-3-3-3--------------------------------|

    C              D              G              C                     G
e|----------------------------------------------------------------------------------------|
B|----------------------------------------------------------------------------------------|
G|--5-5-5-5-5-5----7-7-7-7-7-7-------------------5-5-5-5-5-5-5-5-5-5----------------------|
D|--5-5-5-5-5-5----7-7-7-7-7-7----5-5-5-5-5-5----5-5-5-5-5-5-5-5-5-5---5-5-5-5-5-5-5-5-5--|
A|--3-3-3-3-3-3----5-5-5-5-5-5----5-5-5-5-5-5----3-3-3-3-3-3-3-3-3-3---5-5-5-5-5-5-5-5-5--|
E|--------------------------------3-3-3-3-3-3--------------------------3-3-3-3-3-3-3-3-3--|


C        D
I'll be true to you oh
G                C
yeah, you know I will
C        D             G           C    C    C         G
I'll be true to you forever or until ......... I go home.



| /  slide up
| \  slide down
| h  hammer-on
| p  pull-off
| ~  vibrato
| +  harmonic
| x  Mute note
==============================================================================================
Добавлено: 15.04.2012
Другие материалы по этой песне:
  • Аккорды и текст

Страница создана 16.03.2012
http://primanota.ru/groovie-ghoulies/to-go-home-chords.htm
Привет, Гость.
Предлагаем пройти революционный курс по гитаре.
Подарок от PrimaNota.Ru, забирай!