PrimaNota.ru - самый крупный в мире бесплатный архив песенных текстов, аккордов, табулатур и нот


Groovie Ghoulies - Devil Town - текст песни, таба, видео

Регистрация Запомнить меня
Войти через:  Facebook Google Twitter Vk Yandex Mail.ru

Groovie Ghoulies - Devil Town - текст песни, таба, видео

Печатать
Просмотров: 89
Уроки эстрадного вокала в Санкт-Петербурге
Авторы музыки: Daniel Johnston
Авторы текста: Daniel Johnston
-------------------------------------------------------------------------------
                             Devil Town - Groovie Ghoulies
-------------------------------------------------------------------------------

Tuning: Standard

Intro
  E5
  1 . . . 2 . . . 3 . . . 4 . . .
e|--------------------------------|
B|--------------------------------|
G|--------------------------------|
D|2-2-2-2-2-2-2-2-2-2-2-2-2-2-2-2-|
A|2-2-2-2-2-2-2-2-2-2-2-2-2-2-2-2-|
E|0-0-0-0-0-0-0-0-0-0-0-0-0-0-0-0-|

Verse
     G5              C5      D5
     1 . . . 2 . . . 3 . . . 4 . . .
e||-----------------------------------||
B||-----------------------------------||
G||o-----------------5---5-5-7---7-7-o|| x12
D||o-5---5-5-5-5-5-5-5---5-5-7---7-7-o||
A||--5---5-5-5-5-5-5-3---3-3-5---5-5--||
E||--3---3-3-3-3-3-3------------------||

Outro
  G5
e|--------------------------------|
B|--------------------------------|
G|--------------------------------|
D|5-------------------------------|
A|5-------------------------------|
E|3-------------------------------|

************************************

| /   slide up
| \   slide down
| h   hammer-on
| p   pull-off
| ~   vibrato
| +   harmonic
| x   Mute note
| b   Bend
| pb  Pre-bend
| br  Bend release
| pbr Pre-bend release
| brb Bend release bend

************************************
Добавлено: 25.05.2016
Другие материалы по этой песне:
  • Аккорды и текст

Страница создана 23.07.2012
http://primanota.ru/groovie-ghoulies/devil-town-chords.htm
Привет, Гость.
Предлагаем пройти революционный курс по гитаре.
Подарок от PrimaNota.Ru, забирай!