PrimaNota.ru - самый крупный в мире бесплатный архив песенных текстов, аккордов, табулатур и нот


Gronibard - 30 Millions De Zobis - аккорды и текст, видео

Регистрация Запомнить меня
Войти через:  Facebook Google Twitter Vk Yandex Mail.ru

Gronibard - 30 Millions De Zobis - аккорды и текст, видео

Печатать
Просмотров: 81
Уроки эстрадного вокала в Санкт-Петербурге
30 Millions De Zobis
Gronibard
intro

----------------------------------------------------------|
----------------------------------------------------------|
----------------------------------------------------------|
-0000111100001111000011110000-----------------------------|
-0000111100001111000011110000-----------------------------|
-0000111100001111000011110000xx---------------------------|

----------------------------------------------------------|
----------------------------------------------------------|
----------------------------------------------------------|
-0000111100001111000055558888-----------------------------|
-0000111100001111000055558888-----------------------------|
-0000111100001111000055558888-----------------------------|

----------------------------------------------------------|
----------------------------------------------------------|
----------------------------------------------------------|
-00001111000011110000-8-8-5-5-----------------------------|
-00001111000011110000-8-8-5-5-----------------------------|
-00001111000011110000-8-8-5-5-----------------------------|

part1

----------------------------------------------------------|
----------------------------------------------------------|
----------------------------------------------------------|
-0-8-3-0-8-56---------------------------------------------|
-0-8-3-0-8-56---------------------------------------------|
-0-8-3-0-8-56---------------------------------------------|

----------------------------------------------------------|
----------------------------------------------------------|
----------------------------------------------------------|
-0-8-3-0-8-565--------------------------------------------|
-0-8-3-0-8-565--------------------------------------------|
-0-8-3-0-8-565--------------------------------------------|

----------------------------------------------------------|
----------------------------------------------------------|
----------------------------------------------------------|
-00000000888833330000885566666666-------------------------|
-00000000888833330000885566666666-------------------------|
-00000000888833330000885566666666-------------------------|


part 2

----------------------------------------------------------|
----------------------------------------------------------|
----------------------------------------------------------|
-0-4-32-0-323-4--0-4-32-0-324-32--------------------------|
-0-4-32-0-323-4--0-4-32-0-324-32--------------------------|
-0-4-32-0-323-4--0-4-32-0-324-32--------------------------|

----------------------------------------------------------|
----------------------------------------------------------|
----------------------------------------------------------|
-0000000044443322000033223333444444444--------------------|
-0000000044443322000033223333444444444--------------------|
-0000000044443322000033223333444444444--------------------|

----------------------------------------------------------|
----------------------------------------------------------|
----------------------------------------------------------|
-0000000044443322000033224444444443322--------------------|
-0000000044443322000033224444444443322--------------------|
-0000000044443322000033224444444443322--------------------|

end

----------------------------------------------------------|
----------------------------------------------------------|
----------------------------------------------------------|
-0-8-3-0-8-56---------------------------------------------|
-0-8-3-0-8-56---------------------------------------------|
-0-8-3-0-8-56---------------------------------------------|

----------------------------------------------------------|
----------------------------------------------------------|
----------------------------------------------------------|
-0-8-3-0-8-565--------------------------------------------|
-0-8-3-0-8-565--------------------------------------------|
-0-8-3-0-8-565--------------------------------------------|
Добавлено: 21.12.2015
Другие материалы по этой песне:
  • Аккорды и текст

Страница создана 21.12.2015
http://primanota.ru/gronibard/30-millions-de-zobis-chords.htm
Привет, Гость.
Предлагаем пройти революционный курс по гитаре.
Подарок от PrimaNota.Ru, забирай!