PrimaNota.ru - самый крупный в мире бесплатный архив песенных текстов, аккордов, табулатур и нот


Grmln - Hand Pistol - аккорды и текст, видео

Регистрация Запомнить меня
Войти через:  Facebook Google Twitter Vk Yandex Mail.ru

Grmln - Hand Pistol - аккорды и текст, видео

Печатать
Просмотров: 85
Hand Pistol
Grmln
awesomely angsty tune from carpark's own GRMLN, off their debut album empire.

i recommend barre chords or power chords, but whatever floats yer boat

-=intro=-

strum E then

    A                   D                   F#m               
  E
E|--------------------------------------------------------------12------12------12------|
B|--12--12--10--10--10--12--12--10--10--10--12--12--10--10--10------10------10------10--|
G|--------------------------------------------------------------------------------------|
D|--------------------------------------------------------------------------------------|
A|--------------------------------------------------------------------------------------|
E|--------------------------------------------------------------------------------------|

-=verse=-

pistol in my hand

i don't wanna pull the trigger now

throw it at my face

when you said i'll leave it here but

-=chorus=-

(lead follows vocals like this)

E|------12------12------------------12------12------------------|
B|--14------14------14--12--14--14------14------14--12--10--12--|
G|--------------------------------------------------------------|
D|--------------------------------------------------------------|
A|--------------------------------------------------------------|
E|--------------------------------------------------------------|

E|------12------12---------------------------------|
B|--14------14------14--12--14--10--12--10--10--5--|
G|-------------------------------------------------|
D|-------------------------------------------------|
A|-------------------------------------------------|
E|-------------------------------------------------|

A               D
i know i said i want you

F#m             E
i know i said i need you but

A                   D          F#m
i know that i could lose you tonight

E          A
tonight, tonight

    A                   D                   F#m               
  E
E|--------------------------------------------------------------12------12------12------|
B|--12--12--10--10--10--12--12--10--10--10--12--12--10--10--10------10------10------10--|
G|--------------------------------------------------------------------------------------|
D|--------------------------------------------------------------------------------------|
A|--------------------------------------------------------------------------------------|
E|--------------------------------------------------------------------------------------|

-=verse=-

A               D
stories in your eyes

F#m     E
i wanna wait to hear it out

A                   D
streaming down your face

F#m              E
when i said i'll leave it here but

-=chorus=-

E|------12------12------------------12------12------------------|
B|--14------14------14--12--14--14------14------14--12--10--12--|
G|--------------------------------------------------------------|
D|--------------------------------------------------------------|
A|--------------------------------------------------------------|
E|--------------------------------------------------------------|

E|------12------12---------------------------------|
B|--14------14------14--12--14--10--12--10--10--5--|
G|-------------------------------------------------|
D|-------------------------------------------------|
A|-------------------------------------------------|
E|-------------------------------------------------|

A               D
i know i said i want you

F#m             E
i know i said i need you but

A                   D          F#m
i know that i could lose you tonight

E          A
tonight, tonight

-=break=-

strum the low E chord here

    D   A       E   F#m
E|--14--16--17--12--14--|
B|----------------------|
G|----------------------|
D|----------------------|
A|----------------------|
E|----------------------| x3

    E
E|--17--16--|
B|----------|
G|----------|
D|----------|
A|----------|
E|----------| finish on this

-=chorus=-

E|------12------12------------------12------12------------------|
B|--14------14------14--12--14--14------14------14--12--10--12--|
G|--------------------------------------------------------------|
D|--------------------------------------------------------------|
A|--------------------------------------------------------------|
E|--------------------------------------------------------------|

E|------12------12---------------------------------|
B|--14------14------14--12--14--10--12--10--10--5--|
G|-------------------------------------------------|
D|-------------------------------------------------|
A|-------------------------------------------------|
E|-------------------------------------------------|

A               D
i know i said i want you

F#m             E
i know i said i need you but

A                   D          F#m
i know that i could lose you tonight

E          A
tonight, tonight and

A               D
i know i said i want you

F#m             E
i know i said i need you but

A                   D          F#m
i know that i could lose you tonight

E          A
tonight, tonight

end on A
Добавлено: 05.08.2015
Другие материалы по этой песне:
  • Аккорды и текст

Страница создана 05.08.2015
http://primanota.ru/grmln/hand-pistol-chords.htm
Привет, Гость.
Предлагаем пройти революционный курс по гитаре.
Подарок от PrimaNota.Ru, забирай!