PrimaNota.ru - самый крупный в мире бесплатный архив песенных текстов, аккордов, табулатур и нот


Grizzly Bear - Southern Point - текст песни, таба, видео

Регистрация Запомнить меня
Войти через:  Facebook Google Twitter Vk Yandex Mail.ru

Grizzly Bear - Southern Point - текст песни, таба, видео

Печатать
Просмотров: 136
The main guitar in this song is in Open D6 Tuning which means the six guitar strings, 
lowest pitch to highest, should be tuned like this: D A D F♯ B D.

So take your Low E and High E then drop them a whole step. After that drop your G a half step.

This song has some beautiful sounding guitar parts so I decided to do a tab for it.

Be prepared to use your thumb to play some of these chords though.

On the Intro and the Bridge I didn't notate the rhythm, just the chords. So listen 
to the song for that.

OK so here we go!

v = Down stroke
^ = Up stroke

   Intro
D |--0------0------|
B |--0------0------|
F#|--1------1------|
D |--2------3------|
A |--2------3------|
D |--2------3------|
Throw in some 0's on the low D string here too like the bass part is doing.

   The Crescendo Part
D |--3-3-3-3-5-3-3-3-108-8-8-108-8-8--|
B |--3-5-3-5-3-5-3-5-8-108-108-108-10-|
F#|--3-3-6-3-3-3-6-3-8-8-118-8-8-118--|
D |--3-3-3-3-3-3-3-3-8-8-8-8-8-8-8-8--|
A |--3-3-3-3-3-3-3-3-8-8-8-8-8-8-8-8--|
D |--3-3-3-3-3-3-3-3-8-8-8-8-8-8-8-8--|
     v^v^v^v^v^v^v^v^v^v^v^v^v^v^v^v^

   Main Guitar Part
D |------2-0---x---2---0---x---0---5---0---x---0---5---0---x---|
B |------2-0---2---2---0---2---0---5---0---5---0---5---0---5---|
F#|------3-3-3-3-3-3-3-3-3-3-3-3-3-6-6-6-6-6-6-6-6-6-6-6-6-6-6-|
D |--4---4-4-4-4-4-4-4-4-4-4-4-4-4-7-7-7-7-7-7-7-7-7-7-7-7-7-7-|
A |--0---0-0-0-0-0-0-0-0-0-0-0-0-0-0-0-0-0-0-0-0-0-0-0-0-0-0-0-|
D |--0---0-0-0-0-0-0-0-0-0-0-0-0-0-----------------------------|
     v   v ^ v ^ v ^ v ^ v ^ v ^ v ^ v ^ v ^ v ^ v ^ v ^ v ^ v

   Main Guitar Part 2
D |----------12--10------0-------12------10------10h12---0-------|
B |----------10--10------0-------10------10------10------0-------|
F#|----------11--11--11--11--11--11--11--11--11--11--11--11--11--|
D |--12------12--12--12--12--12--12--12--12--12--12--12--12--12--|
A |--0-------0---0---0---0---0---0---0---0---0---0---0---0---0---|
D |--0-------0---0---0---0---0---0---0---0---0---0---0---0---0---|
     v       v   ^   v   ^   v   ^   v   ^   v   ^   v   ^   v
* I spaced it out to be a bit easier to read, not actually slower.

D |--5---0---x---0---5---0---x---|
B |--5---0---5---0---5---0---5---|
F#|--6-6-6-6-6-6-6-6-6-6-6-6-6-6-|
D |--7-7-7-7-7-7-7-7-7-7-7-7-7-7-|
A |--0-0-0-0-0-0-0-0-0-0-0-0-0-0-|
D |------------------------------|
     v ^ v ^ v ^ v ^ v ^ v ^ v ^

   Part after Main Guitar part 2 and the Bridge
D |--2-0-2-0-2-0-2-0-2-0-2-0-2-5-0-5-0-5-0-5-0-5-0-5-0-5-0-|
B |--2-0-2-0-2-0-2-0-2-0-2-0-2-5-0-5-0-5-0-5-0-5-0-5-0-5-0-|
F#|--3-3-3-3-3-3-3-3-3-3-3-3-3-6-6-6-6-6-6-6-6-6-6-6-6-6-6-|
D |--4-4-4-4-4-4-4-4-4-4-4-4-4-7-7-7-7-7-7-7-7-7-7-7-7-7-7-|
A |--0-0-0-0-0-0-0-0-0-0-0-0-0-0-0-0-0-0-0-0-0-0-0-0-0-0-0-|
D |--0-0-0-0-0-0-0-0-0-0-0-0-0-----------------------------|
     v ^ v ^ v ^ v ^ v ^ v ^ v ^ v ^ v ^ v ^ v ^ v ^ v ^ v

   Bridge
D |------------------------------------------------------------------------|
B |----------------------(0)------------------------------------(0)--------|
F#|--9---------------3------2-------3-------9---------------3------2-------|
D |--7---------------2------2-------2-------7---------------2------2-------|
A |--6---------------3------2-------3-------6---------------3------2-------|
D |--9---------------2------2-------2-------9---------------2------2-------|


D |-------------------------------------------|
B |------(0)-------------(0)----------------3-|
F#|--3------2-------3-------2-------3-------3-|
D |--2------2-------2-------2-------2-------4-|
A |--3------2-------3-------2-------3-------0-|
D |--2------2-------2-------2-------2-------0-|

D |-----
B |--2--
F#|--3--
D |--4--
A |--0--
D |--0--
The end is Main Guitar Parts one and two, but the last chord goes like this.

OK from that you should be able to figure out how it goes.

Enjoy!

EDIT: Thanks to hendrixfreak93 for the correction on the tuning, it should be in 
Open D6, not Open D.
Добавлено: 10.06.2012
Другие материалы по этой песне:

Страница создана 29.02.2012
http://primanota.ru/grizzly-bear/southern-point-chords.htm
Привет, Гость.
Предлагаем пройти революционный курс по гитаре.
Подарок от PrimaNota.Ru, забирай!