PrimaNota.ru - самый крупный в мире бесплатный архив песенных текстов, аккордов, табулатур и нот


Grizzly Bear - Slow Life - аккорды и текст, таба, видео

Регистрация Запомнить меня
Войти через:  Facebook Google Twitter Vk Yandex Mail.ru

Grizzly Bear - Slow Life - аккорды и текст, таба, видео

Печатать
Просмотров: 1024
Slow Life
Grizzly Bear
**Capo on the 1st fret.**
**Standard Tuning.**

**CHORDS**

   F          C       Em        Bb
-1------- --------- ------ --1--------|
-1------- --1------ ------ --1----3---|
-1--2---- --------- ------ --1----3---|
-1----3-- -----2--- ---2-- --1----3---|
-1----3-- -------3- ---2-- --1--------|
-1------- -------3- ------ --1--------|

You can choose to start with the first beginning
or the second. Whatever you would like.


Beginning #1:
e----------------------------------------------------------|
B----------------------------------------------------------|
G----------------------------------------------------------|
D-3---3---3----3---2---2---2---2---5--5--5--5--7--7--7--7--|
A----------------------------------------------------------|
E---5---5---5---5---3---3---3---3---7--7--7--7--8--8--8--8-| 2x


Beginning #2: F-C-Em-F


F           C                  Em    F
I think I know what's on your mind
F           C             Em         F
A couple words, a great divide
F                C              Em      F
Waiting in the wings, a small respite
F                     C           Em    F
Crowding up the foreground from behind


C                       Bb          F
Even though you're the only one I see
           C      F     C
It's the last catastrophe
C                    Bb           F    C    F
Place your bets on chance and apathy


F          C                  Em      F
Take anything you want, it's fine
F               C              Em     F
Keep up the slow life for the night
F                C             Em     F
Don't take it back, I'll just deny
F              C             Em       F
This constant noise all the time


C                     Bb            F
Even though you're the only one I see
           C      F      C
It's the last catastrophe
C                   Bb            F
Place your bets on chance and apathy
           C       F      C
From the wind in front of me


C                     Bb            F
Even though you're the only one I see
           C      F      C
It's the last catastrophe
C                   Bb            F
Place your bets on chance and apathy
           C       F      C
From the wind in front of me

C                     Bb            F
Even though you're the only one I see ....

C-F-C-Bb-C-Bb-C....


Enjoy.
Добавлено: 17.05.2012
Другие материалы по этой песне:
  • Аккорды и текст

Страница создана 14.04.2012
http://primanota.ru/grizzly-bear/slow-life-chords.htm
Привет, Гость.
Предлагаем пройти революционный курс по гитаре.
Подарок от PrimaNota.Ru, забирай!