PrimaNota.ru - самый крупный в мире бесплатный архив песенных текстов, аккордов, табулатур и нот


Grizzly Bear - On A Neck On A Spit - текст песни, таба, видео

Регистрация Запомнить меня
Войти через:  Facebook Google Twitter Vk Yandex Mail.ru

Grizzly Bear - On A Neck On A Spit - текст песни, таба, видео

Печатать
Просмотров: 119
Авторы: Grizzly Bear


"On A Neck On A Spit"


***Open G tuning (D G D G B d)***


I named the chords #s instead of the actual chord names because it
would have gotten more confusing with all the G/D, G/B, G/A, etc.
So I named the chords like this:

 #1  #2  #3  #4  #5  #6  #7  #8  #9  #10  #11  #12  #13

 9   7   5   0   0   12  0   0   0   0    0    0    14
 0   0   0   5   3   10  3   2   0   5    0    0    10
 0   0   0   6   4   11  0   0   0   0    7    0    11
 0   0   0   0   0   12  2   2   2   0    0    0    12
 x   x   x   x   x   x   x   x   x   x    x    x    x
 x   x   x   x   x   x   2   2   2   5    5    5    x


#1	#2	#3
		   My messenger in disguise
#1	#2	#3
		   makes up for such short goodbyyyes

#4	#5


d--0-0-0-0-0-0--0-0-0-0-0----|
B--0-0-0-0-0-0--2/3-3-3-3----|
G--2-2-2-4-4-4--3/4-4-4-4----|
D--0-0-0-0-0-0--0-0-0-0-0----|
G----------------------------|
D----------------------------|


#1      #2        #3
You     cant come home again
#1      #2        #3
Each    time it's different
        #4                 #5
And the yards around your feet
      #4                 #5
fall away while you're asleep

#6
Ahhhhhhhh

d--12--X---X-----------|
B--10--8---3-----------|
G--11--9---4-----------|
D--12--10--5-----------|
G----------------------|
D----------------------|


d-------------------------------------------------------------------------|
B-------------------------------------------------------------------------|
G-------------(0)-(0)-(0)-(0)-(0)-(0)---------(0)-------------------4-----|
D-------------(x)-(x)-(x)-(x)-(x)-(x)---------(x)-------------------5-----|
G--7-------0-2-7--(7)--7--(7)--7--(7)------0-2-7-----7-9-7-6--6--6--0-----|
D----0-2-4---------0-------0-------0---2-4--------0--0-0-0-0--0--0--------|


d------------------------------------------------------------------------------------------|
B------------------------------------------------------------------------------------------|
G-------------(0)-(0)-(0)-(0)-(0)-(0)-------------(0)-(0)-(0)-(0)-(0)-(0)--------------4---|
D-------------(x)-(x)-(x)-(x)-(x)-(x)-------------(x)-(x)-(x)-(x)-(x)-(x)--------------5---|
G--7-------0-2-7--(7)--7--(7)--7--(7)------0-2-7--(7)--7--(7)--7--(7)--7-9-7-6--6--6---0---|
D----0-2-4---------0-------0-------0---2-4---------0-------0-------0---0-0-0-0--0--0-------|

**part 2**

Finger pick by ear something around this:

       #7          #8          #9
d--------0---0-0-0---0---0-0-0---0---0-0-0---0--0-0-0-0-----|
B--------3---3-3-3---2---2-2-2---0---0-0-0---0--2h0-2h0-----|
G--------0---0-0-0---0---0-0-0---0---0-0-0---0--0-0-0-0-----|
D--------2---2-2-2---2---2-2-2---2---2-2-2---2--2-2-2-0-----|
G--------X---X-X-X---X---X-X-X---X---X-X-X---X--X-X-X-X-----|
D--5-4-2-----------2-----------2-----------2----------------|


       #7          #8          #9
d--------0---0-0-0---0---0-0-0---0---0-0-0---0--0-0-0-0-----|
B--------3---3-3-3---2---2-2-2---0---0-0-0---0--2h0-2h0-----|
G--------0---0-0-0---0---0-0-0---0---0-0-0---0--0-0-0-0-----|
D--------2---2-2-2---2---2-2-2---2---2-2-2---2--2-2-2-0-----|
G--------X---X-X-X---X---X-X-X---X---X-X-X---X--X-X-X-X-----|
D------2-----------2-----------2-----------2----------------|


       #7          #8          #9
d--------0---0-0-0---0---0-0-0---0---0-0-0---0--0-0-0-0-----|
B--------3---3-3-3---2---2-2-2---0---0-0-0---0--2h0-2h0-----|
G--------0---0-0-0---0---0-0-0---0---0-0-0---0--0-0-0-0-----|
D--------2---2-2-2---2---2-2-2---2---2-2-2---2--2-2-2-0-----|
G--------X---X-X-X---X---X-X-X---X---X-X-X---X--X-X-X-X-----|
D------2-----------2-----------2-----------2----------------|


       #7          #8          #9
d--------0---0-0-0---0---0-0-0---0---0-0-0---0--|
B--------3---3-3-3---2---2-2-2---0---0-0-0---0--|
G--------0---0-0-0---0---0-0-0---0---0-0-0---0--|
D--------2---2-2-2---2---2-2-2---2---2-2-2---2--|
G--------X---X-X-X---X---X-X-X---X---X-X-X---X--|
D------2-----------2-----------2-----------2----|

       #10         #11         #12
d--------0---0-0-0---0---0-0-0---0---0-0-0---0--|
B--------5---5-5-5---0---0-0-0---0---0-0-0---0--|
G--------0---0-0-0---7---7-7-7---0---0-0-0---0--|
D--------0---0-0-0---0---0-0-0---5---5-5-5---5--|
G--------x---x-x-x---x---x-X-X---X---X-X-X---X--|
D--2-4-5-----------5-----------5-----------5----|


       #10         #11         #12
d--------0---0-0-0---0---0-0-0---0---0-0-0---0--------------|
B--------5---5-5-5---0---0-0-0---0---0-0-0---0--------------|
G--------0---0-0-0---7---7-7-7---0---0-0-0---0--------------|
D--------0---0-0-0---0---0-0-0---5---5-5-5---5--------------|
G--------x---x-x-x---x---x-X-X---X---X-X-X---X--------------|
D--5-7-5-----------5-----------5-----------5----5-4-2-------|

#7   #8                 #9
Each day, spend it with me now
#7   #8                   #9
Each day, I spend it with me now
#7   #8                   #9
Each day, I spend it with me now
#7   #8                    #9
All my time, spend it with me but

#10     #11      #10
#10     #11      #10

#7   #8                 #9
Each day, spend it with you now
#7   #8                   #9
Each day, I spend it with you now
#7   #8                    #9
All my time, spend it with you now
#7   #8                    #9
All my time, spend it with you but


#10       #11        #10
#10       #11        #10
#10       #11        #10
#10       #11        #10

#7   #8                 #9
Each day, spend it with you now
#7   #8                   #9
Each day, I spend it with you now
#7   #8                    #9
All my time, spend it with you now
#7   #8                    #9
All my time, spend it with you but


#10       #11        #10
out here, no one can hear me
#10       #11        #10
out here, no one can hear me
#10       #11        #10
out here, no one can hear me


#2   #10
#2   #10
#2   #10
#2   #10
#6   #13
#6   #13
#6   #13
#6   #13
#6   #13
#6   #13

#7   #8    #9
#7   #8    #9
#7   #8    #9
#7   #8    #9

#7   #8                 #9
Each day, spend it with you now
#7   #8                   #9
Each day, I spend it with you now
#7   #8                    #9
All my time, spend it with you now
#7   #8                    #9
All my time, spend it with you but


#10       #11        #10
out here, no one can hear me
#10       #11        #10
out here, no one can hear me
#10       #11        #10
out here, no one can hear me


#2     #10
#2     #10
#2     #10
#2     #10
#7   #8    #9

(tabbed by shmortisborg)
Добавлено: 04.04.2012
Другие материалы по этой песне:
  • Аккорды и текст

Страница создана 04.04.2012
http://primanota.ru/grizzly-bear/on-a-neck-on-a-spit-chords.htm
Привет, Гость.
Предлагаем пройти революционный курс по гитаре.
Подарок от PrimaNota.Ru, забирай!