PrimaNota.ru - самый крупный в мире бесплатный архив песенных текстов, аккордов, табулатур и нот


Grizzly Bear - Little Brother Part 2 - таба, видео

Регистрация Запомнить меня
Войти через:  Facebook Google Twitter Vk Yandex Mail.ru

Grizzly Bear - Little Brother Part 2 - таба, видео

Печатать
Просмотров: 109
Part 2 same tips as part one. pluck really quickly
Thanks,

Jake Miller

e|--9---9---9---9---9---9---9---9---9---9---9---9---9---9---9---9----|
B|---10--10--10--10--10--10--10--10--9---9---9---9---9---9---9---9---|
G|----11--11--11--11--11--11--11--11--10--10--10--10--10--10--10--10-|
D|-11--11--11--11--11--11--11--11--12--12--12--12--12--12--12--12----|
A|-------------------------------------------------------------------|
D|-------------------------------------------------------------------|

e|--8---8----7---7---7---7---7---7---7---7---7---7---7---7---7---7----|
B|---9---9----8---8---8---8---8---8---7---7---7---7---7---7---7---7---|
G|----10--10---9---9---9---9---9---9---8---8---8---8---8---8---8---8--|
D|-10--10---9---9---9---9---9---9---10--10--10--10--10--10--10--10----|
A|--------------------------------------------------------------------|
D|--------------------------------------------------------------------|

e|--7---7---7---7---7---7---7---6---5---5---5---5---4---4---4---9-----|
B|---6---6---6---6---6---6---6---6---6---6---6---6---6---6---6---10---|
G|----7---7---7---7---7---7---7---7---7---7---7---7---7---7---7---11--|
D|-7---7---7---7---7---7---7---7---7---7---7---7---7---7---7---11-----|
A|--------------------------------------------------------------------|
D|--------------------------------------------------------------------|

e|--4---4---4---4---4---4---5---4---3---3---3---3---3---3---3---0-----|
B|---5---5---5---5---5---5---5---5---5---5---5---5---5---5---5---5----|
G|----6---6---6---6---6---6---6---6---5---5---5---5---5---5---5---5---|
D|-6---6---6---6---6---6---6---6---5---5---5---5---5---5---5---5------|
A|--------------------------------------------------------------------|
D|--------------------------------------------------------------------|

e|-2---------------2----------------2---------------0---------------|
B|-----------0---------------0----------------2---------------2-----|
G|-------2-------2-------2-------2--------3-------3-------3-------3-|
D|-----4-------4-------4-------4--------5-------5-------5-------5---| x2
A|------------------------------------------------------------------|
D|-0-------0-------0-------0--------0-------0-------0-------0-------|

e|------------------------------------------------------------------|
B|-5---------------5---------------5---------------5----------------|
G|---5---5---5---5---5---5---5---5---5---5---5---5---5---5---5---5--|
D|-----5-------5-------5-------5-------5-------5-------5-------5----|
A|---------7-------------------------------7---------------7--------|
D|-5---------------5-------5h6-----7---------------7----------------|

e|-2---------------2-------1-------2---------------2----------------|
B|-----------0-------------------------------0---------------0------|
G|-------2-------2-------2-------1-------2-------2-------2-------2--|
D|-----4-------4-------4-------4-------4-------4-------4-------4----|
A|------------------------------------------------------------------|
D|-0-------0-------0-------0-------0-------0-------0-------0--------|

e|------------------------------------------------------------------|
B|-5---------------5---------------5---------------5----------------|
G|---5---5---5---5---5---5---5---5---5---5---5---5---5---5---5---5--|
D|-----5-------5-------5-------5-------5-------5-------5-------5----|
A|---------7-------------------------------7---------------7--------|
D|-5---------------5-------5h6-----7---------------7----------------|

e|-------------0---------------0---2p0-2p0---------|
B|-----0---2-----------0---2---------------2-------|
G|---4---4---4---4---4---4---4---4---4---4---4---4-|
D|-----4-------4-------4-------4-------4-------4---|
A|-------------------------------------------------|
D|-0-------0-------0-------0-------0-------0-------|

e|-------------0-------------------------------0---|
B|-----0---2-----------0---2-----------0---2-------|
G|---4---4---4---4---4---4---4---4---4---4---4---4-|
D|-----4-------4-------4-------4-------4-------4---|
A|-------------------------------------------------|
D|-0-------0-------0-------0-------0-------0-------|

e|---------------------------------|
B|---------------------------------|
G|---0---0---0---0---0---0---0---0-|
D|-----0---------------------------|
A|---------4---2---0---------------|
D|-0-------------------5---4---2---|

Pride in my countrymen
e|-1---------------0-------------------------------|
B|-------------------------3-------2-------3---0---|
G|---3---3---3---3---3---3---3---3---0---0---0---0-|
D|-----0-------0-------0-------0-------4-------4---|
A|---------3---------------------------------------|
D|-3---------------3-------3-------4-------4-------|

e|-------------0---------------0---2p0-2p0---------|
B|-----0---2-----------0---2---------------2-------|
G|---4---4---4---4---4---4---4---4---4---4---4---4-|
D|-----0-------0-------0-------0-------0-------0---| 
A|-------------------------------------------------|
D|-5-------5-------5-------5-------5-------5-------|

			My little brother will be
e|-----------1-----0---------------1---------------------0---------|
B|-------------------3-------3---------------3-----3---------3-----|
G|-------3-------3-------3-------3-------3-------3---------------3-|
D|-----0-------0-------0-------0-------0-------0-------0-------0---|
A|-----------------------------------------------------------------|
D|-3-------3-------3-------3-------3-------3-------3-------3-------|

Born again
e|-----------------|
B|-2-------3---0---|
G|---0---0---0---0-|
D|-----4-------4---|
A|-----------------|
D|-4-------4-------|

e|-------------0---------------0---2p0-2p0---------|
B|-----0---2-----------0---2---------------2-------|
G|---4---4---4---4---4---4---4---4---4---4---4---4-|
D|-----0-------0-------0-------0-------0-------0---| 
A|-------------------------------------------------|
D|-5-------5-------5-------5-------5-------5-------|

		     Just give us back our quiet
e|-----------1-----0-----------------------------------------------|
B|-----------------------3---------2---------0---------------------|
G|-------3-------3-----------3---3-------0---------2-----0---------|
D|-----0-------0-------0-------0-------4-------4-------4-------4---|
A|-----------------------------------------------------------------|
D|-3-------3-------3-------3-------4-------4-------4-------4-------|

Corner
e|-----------------0----------------------------0---2-------2h3-----|
B|-----------0------------0-------------0---2-----------------------|
G|-------0-------0------------0-------4---4---4---4---4---4---4---4-|
D|-----2-------2--------2-------2-------0-------0-------0-------0---|
A|------------------------------------------------------------------|
D|-2-------2-------2--------2-------5-------5-------5-------5-------|

e|-5-5-5-5-5-5-3-3-3-3-3-3-1-1-1-1-1-1---------------------------------|
B|-6-6-6-6-6-6-5-5-5-5-5-5-3-3-3-3-3-3---------------------------------|
G|-0-0-0-0-0-0-0-0-0-0-0-0-0-0-0-0-0-0---0---0---0---0---0---0---0---0-|
D|-0-0-0-0-0-0-0-0-0-0-0-0-0-0-0-0-0-0-----0-------0-------0-------0---|
A|-0-0-0-0-0-0-0-0-0-0-0-0-0-0-0-0-0-0---------3---------------3-------|
D|-5-5-5-5-5-5-5-5-5-5-5-5-3-3-3-3-3-3-3---------------3---------------|
       D D U U D U D D U U D U D D U U D U

e|-5-5-5-5-5-5-3-3-3-3-3-3-1-1-1-1-1-1-0-0-0-0-0-0-|
B|-6-6-6-6-6-6-5-5-5-5-5-5-3-3-3-3-3-3-2-2-2-2-2-2-|
G|-0-0-0-0-0-0-0-0-0-0-0-0-0-0-0-0-0-0-3-3-3-3-3-3-|
D|-0-0-0-0-0-0-0-0-0-0-0-0-0-0-0-0-0-0-4-4-4-4-4-4-|
A|-0-0-0-0-0-0-0-0-0-0-0-0-0-0-0-0-0-0-0-0-0-0-0-0-|
D|-5-5-5-5-5-5-5-5-5-5-5-5-3-3-3-3-3-3-0-0-0-0-0-0-|
       D D U U D U D D U U D U D D U U D U D D U U D U

e|--------0---------------0-------|
B|----2-------2-------2-------2---|
G|--3---3---3---3---3---3---3---3-|
D|----4-------4-------4-------4---| x2
A|--------------------------------|
D|-0------0-------0-------0-------|

                                                           Now 
e|------------------------------------------------------------------|
B|-5---------------5---------------5---------------5----------------|
G|---5---5---5---5---5---5---5---5---5---5---5---5---5---5---5---5--|
D|-----5-------5-------5-------5-------5-------5-------5-------5----|
A|---------7-------------------------------7------------------------|
D|-5---------------5-------5h6-----7---------------7-------7h9------|

Go
e|--------0---------------0-------|
B|----2-------2-------2-------2---|
G|--3---3---3---3---3---3---3---3-|
D|----4-------4-------4-------4---|
A|--------------------------------|
D|-0------0-------0-------0-------|

Back to the other side of 
e|---------------------------------|
B|---------------------------------|
G|---0---0---0---0---0---0---0---0-|
D|-----0---------------------------|
A|---------4---2---0---------------|
D|-0-------------------5---4---2---|

My bed.	                                                    Ill
e|------------------------------------------------------------------|
B|-5---------------5---------------5---------------5----------------|
G|---5---5---5---5---5---5---5---5---5---5---5---5---5---5---5---5--|
D|-----5-------5-------5-------5-------5-------5-------5-------5----|
A|---------7-------------------------------7------------------------|
D|-5---------------5-------5h6-----7---------------7-------7h9------|

Go
e|--------0---------------0-------|
B|----2-------2-------2-------2---|
G|--3---3---3---3---3---3---3---3-|
D|----4-------4-------4-------4---|
A|--------------------------------|
D|-0------0-------0-------0-------|

Back to the place where you get 
e|---------------------------------|
B|---------------------------------|
G|---0---0---0---0---0---0---0---0-|
D|-----0---------------------------|
A|---------4---2---0---------------|
D|-0-------------------5---4---2---|

Started                                                    Ill 
e|------------------------------------------------------------------|
B|-5---------------5---------------5---------------5----------------|
G|---5---5---5---5---5---5---5---5---5---5---5---5---5---5---5---5--|
D|-----5-------5-------5-------5-------5-------5-------5-------5----|
A|---------7-------------------------------7------------------------|
D|-5---------------5-------5h6-----7---------------7-------7h9------|

Sleep 
e|--------0---------------0-------|
B|----2-------2-------2-------2---|
G|--3---3---3---3---3---3---3---3-|
D|----4-------4-------4-------4---|
A|--------------------------------|
D|-0------0-------0-------0-------|

Just put the pillows under
e|---------------------------------|
B|---------------------------------|
G|---0---0---0---0---0---0---0---0-|
D|-----0---------------------------|
A|---------4---2---0---------------|
D|-0-------------------5---4---2---|

My head
e|---------------------------------------------------------5-15-16-12-|
B|-5---------------5---------------5---------------5-------5----------|
G|---5---5---5---5---5---5---5---5---5---5---5---5---5---5-5-12-14-9--|
D|-----5-------5-------5-------5-------5-------5-------5---5----------|
A|---------7-------------------------------7---------------7----------|
D|-5---------------5-------5h6-----7---------------7-------7----------|
Добавлено: 30.04.2012
Другие материалы по этой песне:
  • Аккорды и текст

Страница создана 30.04.2012
http://primanota.ru/grizzly-bear/little-brother-part-2-chords.htm
Привет, Гость.
Предлагаем пройти революционный курс по гитаре.
Подарок от PrimaNota.Ru, забирай!