PrimaNota.ru - самый крупный в мире бесплатный архив песенных текстов, аккордов, табулатур и нот


Grizzly Bear - Little Brother Acoustic Part 1 - таба, видео

Регистрация Запомнить меня
Войти через:  Facebook Google Twitter Vk Yandex Mail.ru

Grizzly Bear - Little Brother Acoustic Part 1 - таба, видео

Печатать
Просмотров: 84
This one took me some time. 
Tips: Thumb: D A D strings
          Pointer: G string
          Middle: B string
          Ring: e string
Rotating bass notes. good luck you have to pluck really quick
Drop D tuning

Jake Miller

e|-----0---------------0---------------0---------------0-----------|
B|-10------10------7-------7-------9-------9-------8-------8-------|
G|---7---7---7---7---5---5---5---5---7---7---7---7---6---6---6---6-|
D|-----10------10------7-------7-------9-------9-------8-----------|
A|-9---------------0-----------------------9---------------7---8---|
D|---------0---------------0-------9---------------8---------------|

e|-----0---------------0---------------0---------------0-----------|
B|-7-------7-------7-------7-------7-------7-------7-------7-------|
G|---7---7---7---7---7---7---7---7---7---7---7---7---7---7---7---7-|
D|-----7-------7-------7-------7-------7-------7-------7-------7---|
A|-9-------9-------9-------9-------9-------9-------9-------9-------|
D|-----------------------------------------------------------------|

e|-----0---------------0---------------0---------------0-----------|
B|-10------10------7-------7-------9-------9-------8-------8-------|
G|---7---7---7---7---5---5---5---5---7---7---7---7---6---6---6---6-|
D|-----10------10------7-------7-------9-------9-------8-----------|
A|-9---------------0-----------------------9---------------7---8---|
D|---------0---------------0-------9---------------8---------------|

e|-----0---------------0---------------0---------------0-----------|
B|-7-------7-------7-------7-------7-------7-------7-------7-------|
G|---7---7---7---7---7---7---7---7---7---7---7---7---7---7---7---7-|
D|-----7-------7-------7-------7-------7-------7-------7-------7---|
A|-9-------9-------9-------9-------9-------9-------9-------9-------|
D|-----------------------------------------------------------------|

e|-----0---------------0---------------0-------0-------0-------------|
B|-6-------6-------6-------6-------6-------6-------4-------4-------4-|
G|---6---6---6---6---5---5---5---5---4---4---4---4---4---4---4---4---|
D|-----6-------6-------6-------6-------5-------5-------4-------4-----|
A|-------------------------------------------------------------------|
D|-6-------6-------6-------6-------5-------5-------4-------4---------|

e|-1-|
B|-3-|
G|-3-|
D|-0-| Let it ring out
A|-0-|
D|-3-|

e|-1---------------0-------------------------------|
B|-------------------------3-------2-------3---0---|
G|---3---3---3---3---3---3---3---3---0---0---0---0-|
D|-----0-------0-------0-------0-------4-------4---|
A|---------3---------------------------------------|
D|-3---------------3-------3-------4-------4-------|

e|---------------------------------|
B|---------------------------------|
G|---0---0---0---0---0---0---0---0-|
D|-----5-------5-------5-------5---| x2
A|---------------------------------|
D|-5-------5-------5-------5-------|

e|-1---------------0-------------------------------|
B|-------------------------3-------2-------3---0---|
G|---3---3---3---3---3---3---3---3---0---0---0---0-|
D|-----0-------0-------0-------0-------4-------4---|
A|---------3---------------------------------------|
D|-3---------------3-------3-------4-------4-------|

e|---------------------------------|
B|---------------------------------|
G|---0---0---0---0---0---0---0---0-|
D|-----5-------5-------5-------5---| x2
A|---------------------------------|
D|-5-------5-------5-------5-------|

Wide eyed and up in arms
e|-1---------------0-------------------------------|
B|-------------------------3-------2-------3---0---|
G|---3---3---3---3---3---3---3---3---0---0---0---0-|
D|-----0-------0-------0-------0-------4-------4---|
A|---------3---------------------------------------|
D|-3---------------3-------3-------4-------4-------|

e|---------------------------------|
B|---------------------------------|
G|---0---0---0---0---0---0---0---0-|
D|-----5-------5-------0-------0---| 
A|---------------------------------|
D|-5-------5-------0h2-----2p0-----|

			My little brother was a 
e|-----------1-----0---------------1---------------------0---------|
B|-------------------3-------3---------------3-----3---------3-----|
G|-------3-------3-------3-------3-------3-------3---------------3-|
D|-----0-------0-------0-------0-------0-------0-------0-------0---|
A|-----------------------------------------------------------------|
D|-3-------3-------3-------3-------3-------3-------3-------3-------|

Solemn one
e|-----------------|
B|-2-------3---0---|
G|---0---0---0---0-|
D|-----4-------4---|
A|-----------------|
D|-4-------4-------|

e|---------------------------------|
B|---------------------------------|
G|---0---0---0---0---0---0---0---0-|
D|-----5-------5-------0-------0---| 
A|---------------------------------|
D|-5-------5-------0h2-----2p0-----|

		     He always had his quiet
e|-----------1-----0-----------------------------------------------|
B|-----------------------3---------2---------0---------------------|
G|-------3-------3-----------3---3-------0---------2-----0---------|
D|-----0-------0-------0-------0-------4-------4-------4-------4---|
A|-----------------------------------------------------------------|
D|-3-------3-------3-------3-------4-------4-------4-------4-------|

Corner
e|-----------------0-----------------------------------|
B|-----------0------------0----------------------------|
G|-------0-------0------------0------------------------|
D|-----2-------2--------2-------2---2---4-5-16-14------|
A|-----------------------------------------------------|
D|-2-------2-------2--------2-------2---4-5-16-14------|

e|-----0---------------0---------------0-------0-------0-------------|
B|-6-------6-------6-------6-------6-------6-------4-------4-------4-|
G|---6---6---6---6---5---5---5---5---4---4---4---4---4---4---4---4---|
D|-----6-------6-------6-------6-------5-------5-------4-------4-----|
A|-------------------------------------------------------------------|
D|-6-------6-------6-------6-------5-------5-------4-------4---------|

Pride in my countrymen
e|-1---------------0-------------------------------|
B|-------------------------3-------2-------3---0---|
G|---3---3---3---3---3---3---3---3---0---0---0---0-|
D|-----0-------0-------0-------0-------4-------4---|
A|---------3---------------------------------------|
D|-3---------------3-------3-------4-------4-------|

e|-------------0-0-0------0-0-----0-0-|
B|-------------0-0-0------0-0-----0-0-|
G|---0---0-----0-0-0--0---0-0-0---0-0-|
D|-----5-------5-5-5--0---0-0-0---0-0-| 
A|-------------0-0-0--0---0-0-0---0-0-|
D|-5-------5---5-5-5--0h2-2-2-2p0-2-2-|
               U D U  D   D U D   D U

			My little brother will be
e|-----------1-----0---------------1---------------------0---------|
B|-------------------3-------3---------------3-----3---------3-----|
G|-------3-------3-------3-------3-------3-------3---------------3-|
D|-----0-------0-------0-------0-------0-------0-------0-------0---|
A|-----------------------------------------------------------------|
D|-3-------3-------3-------3-------3-------3-------3-------3-------|

Born again
e|-----------------|
B|-2-------3---0---|
G|---0---0---0---0-|
D|-----4-------4---|
A|-----------------|
D|-4-------4-------|

e|-------------0-0-0------0-0-----0-0-|
B|-------------0-0-0------0-0-----0-0-|
G|---0---0-----0-0-0--0---0-0-0---0-0-|
D|-----5-------5-5-5--0---0-0-0---0-0-| 
A|-------------0-0-0--0---0-0-0---0-0-|
D|-5-------5---5-5-5--0h2-2-2-2p0-2-2-|
               U D U  D   D U D   D U

		     Just give us back our quiet
e|-----------1-----0-----------------------------------------------|
B|-----------------------3---------2---------0---------------------|
G|-------3-------3-----------3---3-------0---------2-----0---------|
D|-----0-------0-------0-------0-------4-------4-------4-------4---|
A|-----------------------------------------------------------------|
D|-3-------3-------3-------3-------4-------4-------4-------4-------|

Corner
e|-----------------0-----------------------------------|
B|-----------0------------0----------------------------|
G|-------0-------0------------0------------------------|
D|-----2-------2--------2-------2---2---4-5-16-14------|
A|-----------------------------------------------------|
D|-2-------2-------2--------2-------2---4-5-16-14------|

e|-------------0---------------0---2p0-2p0---------|
B|-----0---2-----------0---2---------------2-------|
G|---4---4---4---4---4---4---4---4---4---4---4---4-|
D|-----4-------4-------4-------4-------4-------4---|
A|-------------------------------------------------|
D|-0-------0-------0-------0-------0-------0-------|

e|-------------0---------------0---2p0-2p0-----0---|
B|-----0---2-----------0---2---------------2-------|
G|---4---4---4---4---4---4---4---4---4---4---4---4-|
D|-----4-------4-------4-------4-------4-------4---|
A|-------------------------------------------------|
D|-0-------0-------0-------0-------0-------0-------|

e|-------------0---------------0---------------0-------0--------7--|
B|-----0---2-----------0---2-----------0---2-------2--------8------|
G|---4---4---4---4---4---4---4---4---4---4---4---4---4---4---------|
D|-----4-------4-------4-------4-------4-------4-------4-----------|
A|-----------------------------------------------------------------|
D|-0-------0-------0-------0-------0-------0-------0---------------|
Добавлено: 10.07.2012
Другие материалы по этой песне:
  • Аккорды и текст

Страница создана 10.07.2012
http://primanota.ru/grizzly-bear/little-brother-acoustic-part-1-chords.htm
Привет, Гость.
Предлагаем пройти революционный курс по гитаре.
Подарок от PrimaNota.Ru, забирай!