PrimaNota.ru - самый крупный в мире бесплатный архив песенных текстов, аккордов, табулатур и нот


Grizzly Bear - Fine For Now - текст песни, таба, видео

Регистрация Запомнить меня
Войти через:  Facebook Google Twitter Vk Yandex Mail.ru

Grizzly Bear - Fine For Now - текст песни, таба, видео

Печатать
Просмотров: 123
                             Fine For Now - Grizzly Bear
-------------------------------------------------------------------------------
Tabbed by:Dominic Butler
Email:

This is my first attempt at tablature so the timings not too great.the hardest
part was figuring out the weird tuning.These are the 5 main parts of the song.
Ive posted a rough video guide on youtube also.

Tuning: E A C# F# B e (standard but drop 3rd and 4th string down 1/2 a step)

Intro}

e |--x----x----x----x----x---------------------------x----x--x-x----x---------|
B |--14---10---9----5----2---------------------------5----2--x-5----2---------|
F#|--x----x----x----5----3(X2)----------------(X2)---3----3--x-3----3---------|
C#|--12---12---8----0----0---------------------------0----0--x-0----0---------|
A |--o----0----0----0----0----0-2-4-2-0--------------0----0--x-0----0---------|
E |--x----x----x----x----x--------------2-0----------x----x--x-x----x---------|


Verse}'There is time'..............

e |---x----x----x----x--------------------------------------------------------|
B |---5----2----5----2--------------------------------------------------------|
F#|---3----3----3----3--------------------------X2 Then play intro------------|
C#|---x----0----x----0--------------------------------------------------------|
A |---4----0----4----0------0-2-4-2-0-----------------------------------------|
E |-2------x----2----x----------------2-0-------------------------------------|


Verse into chorus}
                    
e |--x----x----0----x-/--x-/-x--xx--x-/-x-x--\-x--xx-/-x--\-x--/-x-x----------|
B |--5----2----0----4-/--7-/-9--99--9-/-1212-\-9--99-/-14-\-12-/-1414---------|
F#|--3----3----3----2-/--5-/-7--77--7-/-1010-\-7--77-/-12-\-10-/-1212---------|
C#|--x----x----x----0-/--0-/-0--00--0-/-0-0--\-0--00-/-0--\-0--/-0-0----------|
A |--4----4----4----0-/--0-/-0--00--0-/-0-0--\-0--00-/-0--\-0--/-0-0----------|
E |--x----x----x----0-/--0-/-0--00--0-/-0-0--\-0--00---0--\-0--/-0-0----------|



'All of the kids on the waterfront'................

e |--2-2-2-2-2-2--/--5-5-5-5-5-5----------------------------------------------|
B |--4-4-4-4-4-4--/--5-5-5-5-5-5----------------------------------------------|
F#|--3-3-3-3-3-3--/--7-7-7-7-7-7-------(Then play chorus)---------------------|
c#|--2-2-2-2-2-2--/--5-5-5-5-5-5----------------------------------------------|
A |--2-2-2-2-2-2--/--5-5-5-5-5-5----------------------------------------------|
E |--2-2-2-2-2-2--/--5-5-5-5-5-5----------------------------------------------|


'If we're all faltering'..........................

e |--x--------7--------5--------x--------x-x-2--x-2---------------------------|
B |--7--------7--------5--------5--------4-4-2--4-2---------------------------|
F#|--x--------8--------5--------x--------3-3-2--2-2---------------------------|
C#|--8--------7--------5--------6--------2-2-2--2-2---------------------------|
A |--x--------7--------5--------7--------2-2-2--2-2---------------------------|
E |--10-------7--------5--------7--------2-2-2--2-2---------------------------|
    {   light varied strumming   }




| /  slide up
| \  slide down
| h  hammer-on
| p  pull-off
| ~  vibrato
| +  harmonic
| x  Mute note
===============================================================================
Добавлено: 16.04.2012
Другие материалы по этой песне:

Страница создана 16.04.2012
http://primanota.ru/grizzly-bear/fine-for-now-chords.htm
Привет, Гость.
Предлагаем пройти революционный курс по гитаре.
Подарок от PrimaNota.Ru, забирай!