PrimaNota.ru - самый крупный в мире бесплатный архив песенных текстов, аккордов, табулатур и нот


Grizzly Bear - Easier - текст песни, таба, видео

Регистрация Запомнить меня
Войти через:  Facebook Google Twitter Vk Yandex Mail.ru

Grizzly Bear - Easier - текст песни, таба, видео

Печатать
Просмотров: 93
-------------------------------------------------------------------------------
                             Grizzly Bear - Easier
-------------------------------------------------------------------------------
tabbed by: Pedro Carregã
e-mail: ptbrbs@gmail.com

tuning: standard
capo on fret 3

check the song for timing

main riff

fingerstyle

e|--------0-----------2------0-|
B|--2-----------0--------------|
G|-----------------------------|  2
D|-----2-----2-----2-----2-----|  x
A|--0-----0-----0-----0--------|
E|-----------------------------|

e|--------0-----------2------0-|
B|--2-----------0--------------|
G|-----------------------------|  2
D|-----0-----0-----0-----0-----|  x
A|--2-----2-----2-----2--------|
E|-----------------------------|

before verse

e|--------0-----------2-----0-|
B|--2-----------0-------------|
G|----------------------------|  3
D|-----2-----2-----0-----0----|  x
A|--0-----0-------------------|
E|--------------3-----3-------|

e|-----3--2--0----------------|
B|--------------3--2--0-------|
G|-----------------------2----|
D|----------------------------|
A|--0-------------------------|
E|--------------3-------------|

verse

(i'm not 100% sure but sounds very similar)

gentle strums with your thumb

  first one      second one

e|---(0)----|   e|---(0)----|   
B|---(0)----|   B|---(0)----|   
G|----2-----|   G|---(0)----|   
D|----3-----|   D|----2-----|   
A|----5-----|   A|----4-----|   
E|---(5)----|   E|----5-----|   

bridge to chorus (?)

strum this

e|-(0)--|
B|--0---|
G|--0---|
D|--0---|
A|--2---|
E|--3---|

and play this at the same time

e|----------------------------------------------------|
B|----------------------------------------------------|
G|----------------------------------------------------|
D|--------4-----2-----0-----4-----4-----2-----0-------|
A|----(2)---(2)---(2)---(2)---(2)---(2)---(2)---(2)---|
E|--3-------------------------------------------------|

chorus

(i still can't find you)

gentle strums with your thumb

e|-(0)--|
B|--0---|
G|--0---|
D|--0---|
A|--2---|
E|--3---|

again

e|--0-------------------------------------------------|
B|--0-------------------------------------------------|
G|--0-------------------------------------------------|
D|--0-----4-----2-----0-----4-----4-----2-----0-------|
A|--2-(2)---(2)---(2)---(2)---(2)---(2)---(2)---(2)---|
E|--3-------------------------------------------------|

then just

e|--1---|
B|--1---|
G|--2---|
D|--3---|
A|--3---|
E|--1---|

e|--0---|
B|--1---|
G|--0---|
D|--2---|
A|--3---|
E|------|

some variations here and there but it's pretty much it

************************************

| /   slide up
| \   slide down
| h   hammer-on
| p   pull-off
| ~   vibrato
| +   harmonic
| x   Mute note
| b   Bend
| pb  Pre-bend
| br  Bend release
| pbr Pre-bend release
| brb Bend release bend

************************************
Добавлено: 29.10.2015
Другие материалы по этой песне:

Страница создана 22.04.2012
http://primanota.ru/grizzly-bear/easier-chords.htm
Привет, Гость.
Предлагаем пройти революционный курс по гитаре.
Подарок от PrimaNota.Ru, забирай!