PrimaNota.ru - самый крупный в мире бесплатный архив песенных текстов, аккордов, табулатур и нот


The Grizzley Ends - End Of The World - таба, видео

Регистрация Запомнить меня
Войти через:  Facebook Google Twitter Vk Yandex Mail.ru

The Grizzley Ends - End Of The World - таба, видео

Печатать
Просмотров: 103
-------------------------------------------------------------------------------
                             End of the World - The Grizzley Ends
-------------------------------------------------------------------------------

Tabbed by: squintyjoefan
E-mail: squintyjoefan@hotmail.com

Track 6 from the album 'The Unfortunate Demise of the Grizzley Ends'

Song can be found at: http://grizzleyends.bandcamp.com/
Tuning: Standard (EADGBe)

Intro
e|---------------------------------------------------------------------------|
B|---------------------------------------------------------------------------|
G|--7--7------4-4------------------------------------------------------------|
D|--7--7------4-4-----5~-----------------------------------------------------|
A|--5--5------2-2-----5~-----------------------------------------------------|
E|--------------------3~-----------------------------------------------------|

Verse
e|---------------------------------------------------------------------------|
B|---------------------------------------------------------------------------|
G|---------------------------------------------------------------------------|
D|--7-777777--7-777777--9-999999-5-555555------------------------------------|
A|--7-777777--7-777777--9-999999-5-555555------------------------------------|
E|--5-555555--5-555555--7-777777-3-333333------------------------------------|

e|---------------------------------------------------------------------------|
B|---------------------------------------------------------------------------|
G|---------------------------------------------------------------------------|
D|--7-777777--7-777777--9-999999-5-555555------------------------------------|
A|--7-777777--7-777777--9-999999-5-555555------------------------------------|
E|--5-555555--5-555555--7-777777-3-333333------------------------------------|

Pre Chorus
e|---------------------------------------------------------------------------|
B|---------------------------------------------------------------------------|
G|---------------------------------------------------------------------------|
D|--55-5-55-5--99-999-9---5--5--5--5-----------------------------------------|
A|--55-5-55-5--99-999-9---5--5--5--5-----------------------------------------|
E|--33-3-33-3--77-777-7---3--3--3--3-----------------------------------------|

Chorus
e|---------------------------------------------------------------------------|
B|---------------------------------------------------------------------------|
G|--77777777-----------------------------------------------------------------|
D|--77777777-77777777--99999999--55555555------------------------------------|
A|--55555555-77777777--99999999--55555555------------------------------------|
E|-----------55555555--77777777--33333333------------------------------------|

e|---------------------------------------------------------------------------|
B|---------------------------------------------------------------------------|
G|--77777777-----------------------------------------------------------------|
D|--77777777-77777777--99999999--55555555------------------------------------|
A|--55555555-77777777--99999999--55555555------------------------------------|
E|-----------55555555--77777777--33333333------------------------------------|

Outro
e|---------------------------------------------------------------------------|
B|---------------------------------------------------------------------------|
G|--7~-/12-11h12-11h12-11h12-11h12-12\7--7~----------------------------------|
D|---------------------------------------7~----------------------------------|
A|---------------------------------------5~----------------------------------|
E|---------------------------------------------------------------------------|




************************************

| /   slide up
| \   slide down
| h   hammer-on
| p   pull-off
| ~   vibrato
| +   harmonic
| x   Mute note
| b   Bend
| pb  Pre-bend
| br  Bend release
| pbr Pre-bend release
| brb Bend release bend

************************************
Добавлено: 04.12.2015
Другие материалы по этой песне:
  • Аккорды и текст

Страница создана 04.12.2015
http://primanota.ru/grizzley-ends/end-of-world-chords.htm
Привет, Гость.
Предлагаем пройти революционный курс по гитаре.
Подарок от PrimaNota.Ru, забирай!