PrimaNota.ru - самый крупный в мире бесплатный архив песенных текстов, аккордов, табулатур и нот


griz - Need This - таба, видео

Регистрация Запомнить меня
Войти через:  Facebook Google Twitter Vk Yandex Mail.ru

griz - Need This - таба, видео

Печатать
Просмотров: 56
-------------------------------------------------------------------------------
                         Need This (feat. The Floozies) - GRiZ
-------------------------------------------------------------------------------
Tabbed by: wattmalter

Credit goes to my guitar instructor Rex for helping me out....still working on it bear with me

Tuning: Standard


Chords:

    Dm    Em7  Dm   C
e|-----------------------|
B|--6-6----8---6-6--555--|
G|--7-7----7---6-7--555--|
D|--7-7----9---7-7--555--|
A|-----------------------|
E|-----------------------|


Guitar 1 Riff @ :26   ^ = pick

          ^ ^                      ^ ^       
e|-------------------------|--------------------------------|
B|-------------------------|--------------------------------|
G|------5-7/9-7p5-7---5-7--|-------7/12-10--7p5-------------|x2
D|--5h7-------------7------|--7-10--------------7p5---------|
A|-------------------------|------------------------8--3-5--|
E|-------------------------|--------------------------------|

Guitar 2 Riff @ :26   ^ = pick

            ^ ^                           ^  ^ 
e|-------8-10/12-10p8-10----8-10--|-----8-10/15-13-10p8----------------|
B|--8h10-----------------10-------|--10-----------------10p8-----------|
G|--------------------------------|--------------------------10--------|x2
D|--------------------------------|-----------------------------10-12--|
A|--------------------------------|------------------------------------|
E|--------------------------------|------------------------------------|


Guitar @ :51           ^ = pick / () = grace note
              ^ ^                     
e|--10\------------------------|------------------------------|
B|--10\------------------------|------------------------------|
G|--10\-----5-7/9-7p5-7---5-7--|--(5)h7-5\2-------------------|
D|------5h7-------------7------|------------3-2--2h3p2p0------|
A|-----------------------------|-------------------------3/5--|
E|-----------------------------|------------------------------|


Guitar @ 1:04  () = grace note

This next riff is either one or the other so take your pick
e|----------------------------------|---------------------------------------|
B|----------------------------------|---------------------------------------|
G|--(5)h7-5-------------------------|--(5)h7-5------------------------------|
D|---------(7)\5p3p0-5p3p0-3p0------|----------(7)\5p3p0-5p3p0-3p0-3p0------|
A|-----------------------------3h5--|----------------------------------3h5--|
E|----------------------------------|---------------------------------------|

Guitar @ 1:11

e|------------------------|
B|------------------------|
G|--(5)h7-5\2-------------|
D|------------3-2---------|
A|----------------5~-3/5--|
E|------------------------|


Guitar @ 2:08

This next riff is either one or the other so take your pick
e|----------------------------------|---------------------------------------|
B|----------------------------------|---------------------------------------|
G|--(5)h7-5-------------------------|--(5)h7-5------------------------------|
D|---------(7)\5p3p0-5p3p0-3p0------|----------(7)\5p3p0-5p3p0-3p0-3p0------|
A|-----------------------------3h5--|----------------------------------3h5--|
E|----------------------------------|---------------------------------------|


Chords @ 3:11 

    F  G  F D5/A
e|--------------|
B|--1--0--1-----|
G|--2--0--2--2--|
D|--3--0--3--0--|
A|-----------0--|
E|--------------|


Guitar @ 3:15

e|----------------------------------------------10\--|
B|-----------------13---------------------------10\--|
G|--------10-12/14----14\12-10------------------10\--|
D|--10/12----------------------12-10-----------------|
A|-----------------------------------12\10-8---------|
E|-------------------------------------------10------|


Guitar @ 3:22

e|--13h15-13----------------------|---------------------------------------|
B|-----------13h15-13-------------|---------------------------------------|
G|--------------------/14-12~-10--|---------------------------------------|
D|--------------------------------|---------------------------------------|
A|--------------------------------|---------------------------------------|
E|--------------------------------|---------------------------------------|

e|----------------------------------|---------------------------------------|
B|----------------------------------|---------------------------------------|
G|----------------------------------|---------------------------------------|
D|----------------------------------|---------------------------------------|
A|----------------------------------|---------------------------------------|
E|----------------------------------|---------------------------------------|


************************************

| /   slide up
| \   slide down
| h   hammer-on
| p   pull-off
| ~   vibrato
| +   harmonic
| x   Mute note
| b   Bend
| pb  Pre-bend
| br  Bend release
| pbr Pre-bend release
| brb Bend release bend

************************************
Добавлено: 25.06.2016
Другие материалы по этой песне:
  • Аккорды и текст

Страница создана 25.06.2016
http://primanota.ru/griz/need-this-chords.htm
Привет, Гость.
Предлагаем пройти революционный курс по гитаре.
Подарок от PrimaNota.Ru, забирай!