PrimaNota.ru - самый крупный в мире бесплатный архив песенных текстов, аккордов, табулатур и нот


The Griswolds - Riptide - бас-таба, видео

Регистрация Запомнить меня
Войти через:  Facebook Google Twitter Vk Yandex Mail.ru

The Griswolds - Riptide - бас-таба, видео

Печатать
Просмотров: 87
Авторы музыки: James Keogh
Авторы текста: James Keogh
-------------------------------------------------------------------------------
The Griswolds - Riptide ('Like A Version' Vance Joy Cover)
-------------------------------------------------------------------------------
Tabbed by: Cguardiola3

Tuning: Standard 

these are bass tabs for The Griswolds 'like a version' of "riptide" by Vance Joy

heres a link to the song: https://www.youtube.com/watch?v=XMj6XVWrJbw

enjoy!

(intro/verse 1)
  All my friends are turning green,        Ahooooo ooooo ooooo
G|----------------------------------------|------------------------|
D|-----------8-8-8888--6-6-6666--6-6-6666-|-8~--6~------8~--6~-----|
A|-9-9-9999-------------------------------|---------4~----------4~-|
E|----------------------------------------|------------------------|

(chorus)
G|-------------------------------|
D|-8-8-88--6-6-66----------------|
A|-----------------4-4-44-4-4-44-| X4
E|-------------------------------|

(verse 2)
G|----------------------------------------|----------------------------------------|
D|-----------8-8-8888--6-6-6666--6-6-6666-|-----------8-8-8888--6-6-6666--6-6-6666-|
A|-9-9-9999-------------------------------|-9-9-9999-------------------------------|
E|----------------------------------------|----------------------------------------|

(pre chorus)
G|------------------------|
D|-8~--6~------8~--6~-----|
A|---------4~----------4~-|
E|------------------------|

(chorus)
G|-------------------------------|
D|-8-8-88--6-6-66----------------|
A|-----------------4-4-44-4-4-44-| X4
E|-------------------------------|

(bridge)
G|-------------|-------------|
D|----8~-6~----|-8~-6~-------|
A|-9~-------4~-|-------4~-9~-|
E|-------------|-------------|

  i swear she's...
G|------------------------|
D|-8~--6~------8~--6~-----|
A|---------4~----------4~-|
E|------------------------|

[no bass through the soft chorus]

(second to last chorus)
G|-------------------------------|
D|-8-8-88--6-6-66----------------|
A|-----------------4-4-44-4-4-44-| X4
E|-------------------------------|

(last chorus)
G|-------------------------------|-------------------------------|
D|---------8-8-88--6-6-66-6-6-66-|-8-8-88--6-6-66----------------|
A|-9-9-99------------------------|-----------------4-4-44-4-4-44-| X2
E|-------------------------------|-------------------------------|

End
Добавлено: 12.10.2015
Другие материалы по этой песне:
  • Аккорды и текст

Страница создана 12.10.2015
http://primanota.ru/griswolds/riptide-chords.htm
Привет, Гость.
Предлагаем пройти революционный курс по гитаре.
Подарок от PrimaNota.Ru, забирай!