PrimaNota.ru - самый крупный в мире бесплатный архив песенных текстов, аккордов, табулатур и нот


Grinspoon - What You Got - таба, бас-таба, видео

Регистрация Запомнить меня
Войти через:  Facebook Google Twitter Vk Yandex Mail.ru

Grinspoon - What You Got - таба, бас-таба, видео

Печатать
Просмотров: 190
Уроки эстрадного вокала в Санкт-Петербурге
Verses
e----------------------|
B------------10101010--|
G---66-----4-9-9-9-9-9-|
D---66-654-4-9-9-9-9-9-|
A---44-654-2-7-7-7-7-7-|
E------432-------------|

x2 only at the start of the song, then

e-----------------------------------|
B------------10101010---------------|
G---66-----4-9 9 9 9 9--6-----4-9---|
D---66-654-4-9 9 9 9 9--6-654-4-9-9-|
A---44-654-2-7 7 7 7 7--4-654-2-7-9-|
G------432----------------432-----7-|

Chorus Intro

e------------|
B------------|
G---------8*-|
D---4*-2*-8*-|
A---4*-2*-6*-|
E---2*-0*----|

then straight into the chorus

Chorus

e-------------------|
B-------------------|
G---66-99-1111-1414-|
D---66-99-1111-1414-|
A---44-77-9 9 -1212-|
E-------------------|

you go straight to the outro after the chorus

Chorus Outro

e---------|
B---------|
G---9*----|
D---9*-9*-|
A---7*-9*-|
E------7*-|

don't know how the solo goes not that skilled.

hope you have fun with it and leave comments please

tabbed by reece pilgrim and jim irvine
Добавлено: 25.05.2012
Другие материалы по этой песне:

Страница создана 14.04.2012
http://primanota.ru/grinspoon/what-you-got-chords.htm
Привет, Гость.
Предлагаем пройти революционный курс по гитаре.
Подарок от PrimaNota.Ru, забирай!