PrimaNota.ru - самый крупный в мире бесплатный архив песенных текстов, аккордов, табулатур и нот


Grinspoon - Comeback - таба, видео

Регистрация Запомнить меня
Войти через:  Facebook Google Twitter Vk Yandex Mail.ru

Grinspoon - Comeback - таба, видео

Печатать
Просмотров: 131
Уроки эстрадного вокала в Санкт-Петербурге
submitted by BOSS MT-2
this was a piece of piss. was so easy to work out, took about 10 minutes.

verse

     C#    E     B    A     F      E     A     B
e|-------------------------------------------------|
B|-------------------------------------------------|
G|---6-----9-----4-----2-----------------2-----4---|
D|--6-6---9-9---4-4---2-2----4-----2----2-2---4-4--|   x2
A|-4-----7-----2-----0------4-4---2-2--0-----2-----|
E|-------------------------2-----0-----------------|

chorus

F#m                 A
  don't call this a comeback
               E
it's hardly a comeback
                                     B
it's only a comeback if you're never gone

this bit only played once

     C#     E      B     A       F#     E     A       B
e|-------------------------------------------------------|
B|-------------------------------------------------------|
G|-6--6---9--9---4--4---2--2-----------------2--2---4--4-|
D|-6--6---9--9---4--4---2--2---4--4---2--2---2--2---4--4-|
A|-4--4---7--7---2--2---0--0---4--4---2--2---0--0---2--2-|
E|-----------------------------2--2---0--0---------------|


verse

chorus x2


whoah whoah bit (bridge)
                                                                    G#
e|----------------------------------------------------            -----|
B|----------------------------------------------------            -----|
G|-6--6---\--4--/---9--9--\--4--4--/--9--9--\--4--2---            --5--|
D|-6--6---\--4--/---7--7--\--4--4--/--9--9--\--4--2--- x4  end on --6--|
A|-4--4---\--2--/---7--7--\--2--2--/--7--7--\--2--0---            --6--|
E|----------------------------------------------------            --4--|

verse

chorus x 4

whoah whoah bit (bridge) x4

end on A


that's it!!!
Добавлено: 26.11.2013
Другие материалы по этой песне:
  • Аккорды и текст

Страница создана 26.11.2013
http://primanota.ru/grinspoon/comeback-chords.htm
Привет, Гость.
Предлагаем пройти революционный курс по гитаре.
Подарок от PrimaNota.Ru, забирай!