PrimaNota.ru - самый крупный в мире бесплатный архив песенных текстов, аккордов, табулатур и нот


Grin Department - Ocho Pa - таба, видео

Регистрация Запомнить меня
Войти через:  Facebook Google Twitter Vk Yandex Mail.ru

Grin Department - Ocho Pa - таба, видео

Печатать
Просмотров: 96
--grindepartment--
 -ocho pa-
tab by; edrose pogi..
       D         G            A
 0------2--------3-------2---0h2--0-------|
 1----3---3----0---0---2---2--------------|
 2----------------------------------------|
 4--0-------------------------------------|
 5-------------------0--------------------|
 6-----------3----------------------------|
        D        G        A
 0------2--------3--------2---0h2--0------|
 1----3---3----0---0----2---2-------------|
 2----------------------------------------|
 4--0-------------------------------------|
 5--------------------0-------------------|
 6-----------3----------------------------|
     AAAAAAAAAAAAAAAAA
 0-----------------------------------------|
 1---2-2-2-2-2-2-2-2-2---------------------|
 2---2-2-2-2-2-2-2-2-2---------------------|
 4---2-2-2-2-2-2-2-2-2---------------------|
 5-----------------------------------------|
 6-----------------------------------------|

 0--------------------------------------------|
 1--------------------------------------------|
 2--------------------------------------------|
 4----5--5--5--7--7---7--7-5--5--5--7-7-7--5--|
 5----5--5--5--7--7--7--7--5--5--5--7-7-7--5--|
 6--3---3--3--5--5--5--5--3--3--3--5-5-5--3---|

   repeat intro...
and this is 2nd churos
 0-----------------------------------------|
 1--2-2-2-2-2-2-2-2-2----------------------|
 2--2-2-2-2-2-2-2-2-2----------------------|
 4--2-2-2-2-2-2-2-2-2----------------------|
 5-----------------------------------------|
 6-----------------------------------------|

 0-----------------------------------------|
 1-----------------------------------------|
 2---7--7-7-----------------7-7-7----------|  The end....
 4---7-7--7-7-7-7--5--5-5---7-7-7----------|
 5--5-5--5--7-7-7--5--5-5--5-5-5-----------|
 6---------5-5-5--3--3-3-------------------|

  pls... rate this tab this is 100% perfect...
  edrose pogi- led guitar
  lubhen- base
  dose kamot- base
  gong2- drum...
Добавлено: 06.04.2012
Другие материалы по этой песне:
  • Аккорды и текст

Страница создана 06.04.2012
http://primanota.ru/grin-department/ocho-pa-chords.htm
Привет, Гость.
Предлагаем пройти революционный курс по гитаре.
Подарок от PrimaNota.Ru, забирай!