PrimaNota.ru - самый крупный в мире бесплатный архив песенных текстов, аккордов, табулатур и нот


Grim Skunk - Pcp - аккорды и текст, бас-таба, видео

Регистрация Запомнить меня
Войти через:  Facebook Google Twitter Vk Yandex Mail.ru

Grim Skunk - Pcp - аккорды и текст, бас-таба, видео

Печатать
Просмотров: 182
Уроки эстрадного вокала в Санкт-Петербурге
Pcp
Grim Skunk
Song/CD:PCP/Merltdown
Band/Performed by:Grim Skunk/Boris
Tabbed by/date:vick garbugli &Carlos Pino/99/08/15
Tuning/others:standard
 
Intro
       sss        4x then         Ending1  Ending 2&4   Ending 3
G:-----------------------|-----------|----------------|--------------
D:-----------443322------|-----------|----------------|--------------
A:--333-33----------22---|--33-33----|--33-33-3-------|--33333-33----
E:-----------------------|-----------|----------------|--------------

pre fast ska verse

G:-------------------
D:-------------------
A:-------1----1--
E:---2----2------

fast ska verse(sixteenths)

G:------------------------
D:------34/8-43-----------
A:---34---------443-443---
E:------------------------

  Chors(PCP)


G:------------------------
D:------------------------
A:---6-6-6----------------
E:----------66664444------

Punk riff 1

G:------------------------------------------------------
D:------------------------------------------------------
A:---6666-8888-9999-5555-6666-8888-5555-11-10-----------
E:------------------------------------------------------


 Punk riff 2

G:-----------------------------------
D:-----------------------------------
A:----66666-55555--------------------
E:--------------------77777-66666----

Punk riff 3

G:-------------------------------
D:-------------------------------
A:---66666-55555-66666-----------
E:----------------------77777----

Punk riff 4

G:---------------------------------------
D:---------------------------------------
A:---66666-88888-99999-11-11-11-11-11----
E:---------------------------------------

Outro

G:-----------------------------------------------------------------  
D:-----------------------------------------------------------------
A:--66666-88888-99999-11-11-11-11-11-13-13-13-13-13-11-10-11-8-----
E:-----------------------------------------------------------------
Добавлено: 28.11.2013
Другие материалы по этой песне:
  • Аккорды и текст

Страница создана 08.04.2012
http://primanota.ru/grim-skunk/pcp-chords.htm
Привет, Гость.
Предлагаем пройти революционный курс по гитаре.
Подарок от PrimaNota.Ru, забирай!