PrimaNota.ru - самый крупный в мире бесплатный архив песенных текстов, аккордов, табулатур и нот


Grim Skunk - Dont Hide - аккорды и текст, таба, бас-таба, видео

Регистрация Запомнить меня
Войти через:  Facebook Google Twitter Vk Yandex Mail.ru

Grim Skunk - Dont Hide - аккорды и текст, таба, бас-таба, видео

Печатать
Просмотров: 197
Dont Hide
Grim Skunk
		   -##

Titre:         Don't Hide
Groupe:        Grim Skunk
Album:         Grim Skunk
Ecrit Par:     Grim Skunk
Transcrit Par: B Lamoureux
----------------------------------------------------------------------
I juste write the chord, find the rythm by yourself! it's easy..
----------------------------------------------------------------------


guitar 1
|------------------------------------------------------------------------
|------------------------------------------------------------------------
|-------7----------------------------------------------------------------
|-9--5--7--7-------------------------------------------------------------
|-9--5--5--7-------------------------------------------------------------
|-7--3-----5-------------------------------------------------------------


                                               Don't Hide, 1,2,3,4!
   play this riff a couple of time
guitar 2
|--------------------------------------|-----0-0|------------------------
|--------------------------------------|-2-2-2-2|------------------------
|------------------------2-0-----------|-2-2----|------------------------
|----------------0------0----4-2-2-0---|--------|------------------------
|----------2-2-4---0-2-4-------------4-|--------|------------------------
|-----------------3--------------------|--------|------------------------


rhytm A             rhytm B


|-------------------|-------------|--------------------------------------
|-------------------|-------------|--------------------------------------
|--------------7--6-|--------7----|--------------------------------------
|-9--5--7---9--7--6-|--9--5--7--7-|--------------------------------------
|-9--5--7---9--5--4-|--9--5--5--7-|--------------------------------------
|-7--3--5---7--5--4-|--7--3--5--5-|--------------------------------------




pm.   ....    ....   ....   ....   ....
|---------------------------------------------------|--------------------
|---------------------------------------------------|--------------------
|-------------------------------------------7-6/7\6-|--------------------
|-----9------9------5------7------9------9--7-6/7\6-|--------------------
|-----9------9------5------7------9------9--5-4/5\4-|--------------------
|-7-7-7--7-7-7--3-3-3--5-5-5--7-7-7--7-7-7----------|--------------------




                 rhytm A  rhytm B
|-----------------|--------|---------|-----------------------------------
|-----------------|--------|---------|-----------------------------------
|-------------7-6-|--------|---------|-----------------------------------
|-9--5--7--9--7-6-|--------|---------|-----------------------------------
|-9--5--7--9--5-4-|--------|---------|-----------------------------------
|-7--3--5--7------|--------|---------|-------------------------------5h7-




     1 step                                       1 step
|------------------------------------------------------------------------
|----------------------------------------------------10--10--------------
|----------------------------------------------7-9-9^--9^--9^-9----------
|-------------------------------------------7h9----------------7-9-------
|---5-7^------7^-5-7--------5-7^---7^-5-7/9------------------------------
|-7------------------5h7--7----------------------------------------------




                   vibrato    and make feedback with these harmonic
|------------------------------------------------------------------------
|-------10---------------------------------------(12)--------------------
|-7-9-9^---9^-9-7-9-7----------------------------------------------------
|--------------------9------------------------or-------------------------
|------------------------------------------------------------------------
|------------------------------------------(7)---------------------------


Ce fichier a ‚t‚ cr‚e par Tab 1.1     
Добавлено: 29.11.2013
Другие материалы по этой песне:

Страница создана 29.03.2012
http://primanota.ru/grim-skunk/dont-hide-chords.htm
Привет, Гость.
Предлагаем пройти революционный курс по гитаре.
Подарок от PrimaNota.Ru, забирай!