PrimaNota.ru - самый крупный в мире бесплатный архив песенных текстов, аккордов, табулатур и нот


Grijalva And The Lavaz - Bottled Water - таба

Регистрация Запомнить меня
Войти через:  Facebook Google Twitter Vk Yandex Mail.ru

Grijalva And The Lavaz - Bottled Water - таба

Печатать
Просмотров: 50
Уроки эстрадного вокала в Санкт-Петербурге
-------------------------------------------------------------------------------
   "Bottled Water" - Grijalva & The Lavaz
-------------------------------------------------------------------------------
Tabbed by:Anthonyxg
E-mail:agrijalva875@gmail.com

Tuning:standard

e|------------------------------------------------------------------------------|
B|------------------------------------------------------------------------------|
G|----------5-------------5-----------------------------------------------------|
D|---------5-------------5------------------------------------------------------|
A|---3-3---3-------3-3---3------------------------------------------------------|
E|------------------------------------------------------------------------------|

e|------------------------------------------------------------------------------|
B|------------------------------------------------------------------------------|
G|------------------------------------------------------------------------------|
D|---------5----------- --5-----------------------------------------------------|
A|--------5--------------5------------------------------------------------------|
E|---3-3--3--------3-3---3------------------------------------------------------|

e|-------------------------------------------------------------------------------|
B|-------------------------------------------------------------------------------|
G|-------------------------------------------------------------------------------|
D|----------7------------7-------------------------------------------------------|
A|---------7------------7--------------------------------------------------------|
E|----5-5--5-------5-5--5--------------------------------------------------------|

e|---------------------------------------------------------------------------------|
B|---------------------------------------------------------------------------------|
G|---------------------------------------------------------------------------------|
D|-----------2---------2-----------------------------------------------------------|
A|-----------2---------2-----------------------------------------------------------|
E|----0--0-------0--0--------------------------------------------------------------|

e|---------------------------------------------------------------------------------|
B|---------------------------------------------------------------------------------|
G|----5555-------------------------------------------------------------------------|
D|----5555-------------------------------------------------------------------------|
A|----3333-------------------------------------------------------------------------|
E|---------------------------------------------------------------------------------|

e|---------------------------------------------------------------------------------|
B|---------------------------------------------------------------------------------|
G|---------------------------------------------------------------------------------|
D|---5555--------------------------------------------------------------------------|
A|---5555--------------------------------------------------------------------------|
E|---3333--------------------------------------------------------------------------|

e|---------------------------------------------------------------------------------|
B|---------------------------------------------------------------------------------|
G|---------------------------------------------------------------------------------|
D|---7777--------------------------------------------------------------------------|
A|---7777--------------------------------------------------------------------------|
E|---5555--------------------------------------------------------------------------|

e|---------------------------------------------------------------------------------|
B|---------------------------------------------------------------------------------|
G|---------------------------------------------------------------------------------|
D|---2222--------------------------------------------------------------------------|
A|---2222--------------------------------------------------------------------------|
E|---0000--------------------------------------------------------------------------|


************************************

| /   slide up
| \   slide down
| h   hammer-on
| p   pull-off
| ~   vibrato
| +   harmonic
| x   Mute note
| b   Bend
| pb  Pre-bend
| br  Bend release
| pbr Pre-bend release
| brb Bend release bend

************************************
Добавлено: 02.08.2015
Другие материалы по этой песне:
  • Аккорды и текст

Страница создана 02.08.2015
http://primanota.ru/grijalva-and-lavaz/bottled-water-chords.htm
Привет, Гость.
Предлагаем пройти революционный курс по гитаре.
Подарок от PrimaNota.Ru, забирай!