PrimaNota.ru - самый крупный в мире бесплатный архив песенных текстов, аккордов, табулатур и нот


Griffin House - Head For The Hills - аккорды и текст, видео

Регистрация Запомнить меня
Войти через:  Facebook Google Twitter Vk Yandex Mail.ru

Griffin House - Head For The Hills - аккорды и текст, видео

Печатать
Просмотров: 149
Уроки эстрадного вокала в Санкт-Петербурге
Head For The Hills
Griffin House
SONG:   HEAD FOR THE HILLS
ARTIST: GRIFFFIN HOUSE
TAB BY: DON CZARSKI
EMAIL:  GUITARZAN7@HOTMAIL.COM


                   HEAD FOR THE HILLS
                      GRIFFIN HOUSE


INTRO:  
 
           Am   D
E -----------------2---------------
B -3br-1-3-------------3br-1-3-----
G ---------2---1/2--------------2--
D ---------------------------------
A ---------------------------------
E ---------------------------------


VERSE:
D        Am             G  D
I wanna know sometimes
                 Am  G  D
Where I am gonna go
       Am    G  D
Outer space
                  Am   G  D
We're in a black hole
           Am               G  D
I see the stars that shine
                  Am     G  D
They're all satellites
            Am             G  D 
It's gonna rain down here
             Am     G  D
40 days and nights
                  Am       G       D
And the water is high-igh-igh-igh-iiigh
              Am    G  D
On the levee banks
           Am        G  D
We're in a war zone
                    F     E
And here comes the tanks
                 Am    
Here come those tanks


           Am  D              Am   D
E ----------------2-------------------2---------------
B -3br-1-3------------3br-1-3------------3br-1-3------
G ---------2--1/2--------------2--1/2-------------2---
D ----------------------------------------------------
A ----------------------------------------------------
E ----------------------------------------------------
 
 Am                G            D
Make me something that she can lean on
 Am               G         D
Tell me something I can believe


CHORUS:
        Am                        G
We got kids in the war and we're lettin' them go
        D                 Am
We got oil in the Gulf of Mexico
                            G
Killing out, spilling out, watching them die
 D                    Am
God stands by with a tear in his eye

Crooks on Wall St.
  G
We're on Main Street
 D                   Am 
People on my street trying to eat
                                  G
What happened to the land of the free and the brave?
  D                        Am
Seven billion souls and we all need saved
Am        G         D       Am
One love One heart One hope One peace
                        G
Head for the hills and run for your lives
          D                        Am          
If they catch you now you'll never be released
 

    Am     G   D              Am   D
E ----------------2-------------------2--2-2-2-2-2---
B --------------------3br-1-3------------------------
G ------------1/2--------------2--1/2----------------
D ---------------------------------------------------
A ---------------------------------------------------
E ---------------------------------------------------


VERSE:
         Am             G  D
I wanna know sometimes
                Am   G  D
Where I'm gonna go
       Am    G  D
Outer space
                  Am  G  D
We're in a black hole


BREAK:
    C              E
Is all this gone? All this gone?
Am                     F
All this gone to our heads?
 C                 E
All this gone? Is all this gone?
   Am                    F
Is all this gone to our head?
      G
It's pay up time
                       Am   
Everybody hear what I said

           Am  D              Am   D
E ----------------2-------------------2---------------
B -3br-1-3------------3br-1-3------------3br-1-3------
G ---------2--1/2--------------2--1/2-------------2---
D ----------------------------------------------------
A ----------------------------------------------------
E ----------------------------------------------------


CHORUS:
 Am                        G
Kids in the war and we're lettin' them go
 D                 Am
Oil in the Gulf of Mexico
                            G
Spilling out, Killing out, watching them die
 D                    Am
God stands by with a tear in his eye

Crooks on Wall St.
 G
We're on Main Street
 D                         Am
People on the street just trying to eat


VERSE:
     Am                   G
The middle class is gonna go real soon
          D                      Am
With the rich and the poor just fighting for room
    Am                       G
And I don't wanna be there around that night
          D
When the shit goes down
            Am
It'll be a terrible sight
Am        G         D       Am
One love One heart One hope One peace
                        G
Head for the hills and run for your lives
          D                        Am
If they catch you now you'll never be released


OUTRO:
Am        G         D       Am
One love One heart One hope One peace
Am        G         D        Am
One love One blood One heart One hope
Am        G         D       Am
One love One heart One hope One peace

Добавлено: 15.07.2015
Другие материалы по этой песне:
  • Аккорды и текст

Страница создана 15.07.2015
http://primanota.ru/griffin-house/head-for-hills-chords.htm
Привет, Гость.
Предлагаем пройти революционный курс по гитаре.
Подарок от PrimaNota.Ru, забирай!