PrimaNota.ru - самый крупный в мире бесплатный архив песенных текстов, аккордов, табулатур и нот


Grieves - Bloody Poetry - таба, видео

Регистрация Запомнить меня
Войти через:  Facebook Google Twitter Vk Yandex Mail.ru

Grieves - Bloody Poetry - таба, видео

Печатать
Просмотров: 92
Grieves - Bloody Poetry (Acoustic) Feat. Jonathan Olivares
Tabbed by: Locky

Check out Grieves at http://grievesmusic.com/

Sick song, and it's real basic.

Tuning - Whole step down (D Tuning)

Tuning:

Riff 1 x4
d|---------------------------------------------------------------------------|
A|------3-----------7-----------4-----------3--------------------------------|
F|----4---4-------6---6-------5---5-------4---4------------------------------|
C|---------------------------------------------------------------------------|
G|--2------------------------------------------------------------------------|
D|------------3/5-----------3-----------2------------------------------------|

Riff 2 x5
d|---------------------------------------------------------------------------|
A|--------3------------------------------------------------------------------|
F|--------4-----------6-----------4-----------3------------------------------|
C|--------------------7-----------5-----------4------------------------------|
G|--0h2-2--------------------------------------------------------------------|
D|--------------3h5-5-------2h3-3-------0h2-2--------------------------------|

Riff 1 x1
Riff 2 x4
Riff 1 x1
Fill Riff x1

d|---------------------------------------------------------------------------|
A|------3h5p3------7h8p7--------4h5p4----3--3--X-----------------------------|
F|----4-------4---6------6----5-------5--4--4--X-----------------------------|
C|---------------------------------------X--X--X-----------------------------|
G|--2------------------------------------X--X--X-----------------------------|
D|--------------5-----------3------------2--2--X-----------------------------|

Riff 2 x7
Riff 1 x1
Riff 2 x4
Riff 1 x2

And arpeggiate the Am (Bm in standard tuning) to finish.

Apologies for the laziness on a couple of moments where he finishes a riff early. It was 
too much of a pain to tab :)

************************************

| /   slide up
| \   slide down
| h   hammer-on
| p   pull-off
| ~   vibrato
| +   harmonic
| x   Mute note
| b   Bend
| pb  Pre-bend
| br  Bend release
| pbr Pre-bend release
| brb Bend release bend

************************************
Добавлено: 03.08.2013
Другие материалы по этой песне:
  • Аккорды и текст

Страница создана 03.08.2013
http://primanota.ru/grieves/bloody-poetry-chords.htm
Привет, Гость.
Предлагаем пройти революционный курс по гитаре.
Подарок от PrimaNota.Ru, забирай!