PrimaNota.ru - самый крупный в мире бесплатный архив песенных текстов, аккордов, табулатур и нот


Gridlink - Stake Knife - таба, видео

Регистрация Запомнить меня
Войти через:  Facebook Google Twitter Vk Yandex Mail.ru

Gridlink - Stake Knife - таба, видео

Печатать
Просмотров: 101
-------------------------------------------------------------------------------
                             STAKE KNIFE - Gridlink
-------------------------------------------------------------------------------

Tuning (low to high):   Eb Ab Db Gb Bb eb

/ - slide up
\ slide down
t - triplet
" - tremolo pick


Common time



FIG. 1 x 4

eb|------------------------------------------------------------|
Bb|------------------------------------------------------------|
Gb|------------------------------------------------------------|
Db|-10\8-/9---9--9--12-9--9--9--8--8--11-8--8--8--7--7--10-7---|
Ab|-8-\6-/7----------------------------------------------------|
Eb|------------------------------------------------------------|
              t  t  t  t  t  t  t  t  t  t  t  t  t  t  t 



FIG. 2 x 8

eb|-------------------------------------------------------------|
Bb|-------------------------------------------------------------|
Gb|-------------------------------------------------------------|
Db|-7-/10\9-----------------------------------------7"-6"-7"-6"-|
Ab|-5-/8-\7-----5--5--5--7--7--7--8--8--8--5--5--5--------------|
Eb|-------------------------------------------------------------|
                t  t  t  t  t  t  t  t  t  t  t  t               



FIG. 3 x 2

FIRST GUITAR 

eb|-------------------------------------------------------------|
Bb|-------------------------------------------------------------|
Gb|-------------------------------------------------------------|
Db|-10\9-----------------------------10\9-----------10----10----|
Ab|-8-\7-----------------------------8-\7-----------8-----8-----|
Eb|-------0--0--0--0--0--0--0--0--0--------0--0--0--------------|
          t  t  t  t  t  t  t  t  t        t  t  t              

eb|-------------------------------------------------------------|
Bb|-------------------------------------------------------------|
Gb|-------------------------------------------------------------|
Db|-10\9-----------------------------10\9-----------10----13----|
Ab|-8-\7-----------------------------8-\7-----------8-----11----|
Eb|-------0--0--0--0--0--0--0--0--0--------0--0--0--------------|
          t  t  t  t  t  t  t  t  t        t  t  t 

SECOND GUITAR

over second repetition 

eb|-------------------------------------------------------------|
Bb|-------------------------------------------------------------|
Gb|-------------------------------------------------------------|
Db|-7-\6-----------------------------7-\6-----------7-----7-----|
Ab|-------------------------------------------------------------|
Eb|-------0--0--0--0--0--0--0--0--0--------0--0--0--------------|
          t  t  t  t  t  t  t  t  t        t  t  t              

eb|-------------------------------------------------------------|
Bb|-------------------------------------------------------------|
Gb|-------------------------------------------------------------|
Db|-7-\6-----------------------------7-\6-----------7-----9-----|
Ab|-------------------------------------------------------------|
Eb|-------0--0--0--0--0--0--0--0--0--------0--0--0--------------|
          t  t  t  t  t  t  t  t  t        t  t  t              



FIG. 4

FIRST GUITAR

eb|-----------|
Bb|-----------|
Gb|-----------|
Db|-10\9------|
Ab|-8-\7------|
Eb|-----------|

SECOND GUITAR

eb|-----------|
Bb|-----------|
Gb|-----------|
Db|-7-\6------|
Ab|-----------|
Eb|-----------|



FIG. 5 x 4

eb|------------------------------------------------------------|
Bb|------------------------------------------------------------|
Gb|------------------------------------------------------------|
Db|-10\8-/9---9--9--12-9--9--9--8--8--11-8--8--8--7--7--10-7---|
Ab|-8-\6-/7----------------------------------------------------|
Eb|------------------------------------------------------------|
              t  t  t  t  t  t  t  t  t  t  t  t  t  t  t



FIG. 6

eb|-------------|-------------|-------------|-------------|
Bb|-------------|-------------|-------------|-------------|
Gb|-------------|-------------|-------------|-------------|
Db|-2-----------|-3-----------|-5-----------|-3-----------|
Ab|-2-----------|-3-----------|-5-----------|-3-----------|
Eb|-0-----------|-1-----------|-3-----------|-1-----------|

eb|-------------|-------------|-------------|-------------|
Bb|-------------|-------------|-------------|-------------|
Gb|-0-----------|-2-----------|-4-----------|-2-----------|
Db|-2-----------|-3-----------|-5-----------|-3-----------|
Ab|-2-----------|-3-----------|-5-----------|-3-----------|
Eb|-0-----------|-1-----------|-3-----------|-1-----------|



FIG. 6 x 4

eb|------------------------------------------------------|
Bb|------------------------------------------------------|
Gb|------------------------------------------------------|
Db|----------------------------------------------10--10--|
Ab|-8--7-----------10-7-----------11-8-----------8---8---|
Eb|-------0--0--0--------0--0--0--------0--0--0----------|
          t  t  t        t  t  t        t  t  t 

eb|------------------------------------------------------|
Bb|------------------------------------------------------|
Gb|------------------------------------------------------|
Db|----------------------------------------------10--10--|
Ab|-8--7-----------8--7-----------11-8-----------8---8---|
Eb|-------0--0--0--------0--0--0--------0--0--0----------|
          t  t  t        t  t  t        t  t  t



FIG. 7

eb|---------------------------------------------------------|
Bb|---------------------------------------------------------|
Gb|---------------------------------------------------------|
Db|-10\9-----------------------------10\9-----------10--10--|
Ab|-8-\7-----------------------------8-\7-----------8---8---|
Eb|-------0--0--0--0--0--0--0--0--0--------0--0--0----------|
          t  t  t  t  t  t  t  t  t        t  t  t 

eb|-------------------------------------------------|
Bb|-------------------------------------------------|
Gb|-------------------------------------------------|
Db|-10\9--------------------------------------------|
Ab|-8-\7--------------------------------------------|
Eb|-------------------------------------------------|


************************************

| /   slide up
| \   slide down
| h   hammer-on
| p   pull-off
| ~   vibrato
| +   harmonic
| x   Mute note
| b   Bend
| pb  Pre-bend
| br  Bend release
| pbr Pre-bend release
| brb Bend release bend

************************************

http://www.studio-grey.com/gridlink
Добавлено: 28.03.2012
Другие материалы по этой песне:
  • Аккорды и текст

Страница создана 28.03.2012
http://primanota.ru/gridlink/stake-knife-chords.htm
Привет, Гость.
Предлагаем пройти революционный курс по гитаре.
Подарок от PrimaNota.Ru, забирай!