PrimaNota.ru - самый крупный в мире бесплатный архив песенных текстов, аккордов, табулатур и нот


Greyhoundz - Jack In The Box - аккорды и текст, таба, видео

Регистрация Запомнить меня
Войти через:  Facebook Google Twitter Vk Yandex Mail.ru

Greyhoundz - Jack In The Box - аккорды и текст, таба, видео

Печатать
Просмотров: 112
Jack In The Box
Greyhoundz
song:jack in the box
artist:greyhoundz
tabbed by:leander m.
tune guitar down I whole step DGCFAD

Intro:
D|-----------------------------------------------------------------------------|
A|-----------------------------------------------------------------------------|
F|-----------------------------------------------7-7-7-7--6-6-6-6--12-12-12-12-|
C|--0-0-0-0--7-7-7-7--6-6-6-6--9-9-9-9--7-7-7-7--------------------------------|
G|-----------------------------------------------------------------------------|
D|-----------------------------------------------------------------------------|

guitar II                      guitar I
D|--------------------------||---------------------|
A|--------------------------||---------------------|
F|--------------------------||--6~~~-4-6~~~-6-4-6--|
C|--6-6-6--76--6-6-6--76--||---------------------|
G|--4-4-4--54--4-4-4--54--||---------------------|
D|--4-4-4--54--4-4-4--54--||---------------------|

Stanza(riff I)
D|--------------------------------------------|
A|--------------------------------------------|
F|--------------------------------------------|
C|--6--7--9----------7-7-7-7---------7-7-7-7--|
G|--4--5--7--5-5-5-5---------5-5-5-5----------|
D|--4--5--7-----------------------------------|
             . . . . . . . . . . . . . . . . 
Stanza(riff II)
D|------------------------------------------------------|
A|------------------------------------------------------|
F|--------------2------------------------2-2---2---2-3--|
C|-------------------------------------------4---4------|
G|--4-4-4-4-0-4---4-4-4-0-4-2--4-4-4-0-4----------------|
D|------------------------------------------------------|
    . . . . . .   . . . . . .  . . . . .   . . . . . .
Stanza(riff III)do it fast I dont know the efects use I think it's ped. pitch
D|--4p0---------4p0-------2p0--------2p0----------------|
A|------2p0--------2p0--------2p0--------2p0------------|
F|----------2p0--------2p0--------2p0--------2p0--------|
C|------------------------------------------------------|
G|------------------------------------------------------|
D|------------------------------------------------------|

chorus:
D|---------------------------------|
A|---------------------------------|
F|---------------------------------|
C|----7-109-----7---7-----7-109--|
G|----5--87-----5---5-----5--87--|
D|--0-0--0--0--0-0-0--0--0--0--|
    .         .         .        
bridge:
D|------------------------------------|
A|------------------------------------|
F|------------------------------------|
C|--7-7-7-10--7-9--9-9--8-8-8-9-9-9--|
G|--5-5-5--8--5-7--7-7--6-6-6-7-7-7--|
D|--0-0-0--0--0-0--0-0--0-0-0-0-0-0--|  
                         . . .        
D|---------------------------------------|    
A|---------------------------------------|
F|---------------------------------------|
C|--7-7-7-10--8-8-8-9--|-9--9-9-9-9--10--|
G|--5-5-5--8--6-6-6-7--|-7--7-7-7-7--8---|
D|--0-0-0--0--0-0-0-0--|-0--0-0-0-0--0---|
                            . . . .
   
D|------------------------|
A|------------------------|
F|------------------------|
C|----7---79----7---79--|(8x)
G|----5---57----5---57--|
D|--0-0-0-0--0-0-0-0--|
    .   .      .   . 
angels angels go away you little demons want to play
D|-------------------------------------|
A|-------------------------------------|
F|-------------------------------------|
C|--6-6-7-6--6-6-6-6-7-6--6-6-6-6-7-6--|
G|--4-6-5-4--4-4-4-4-5-4--6-4-6-4-5-4--|
D|--0-4-0-0--0-0-0-0-0-0--4-0-0-0-0-0--|

submited by:leander m.
               end
Добавлено: 16.05.2012
Другие материалы по этой песне:
  • Аккорды и текст

Страница создана 16.05.2012
http://primanota.ru/greyhoundz/jack-in-the-box-chords.htm
Привет, Гость.
Предлагаем пройти революционный курс по гитаре.
Подарок от PrimaNota.Ru, забирай!