PrimaNota.ru - самый крупный в мире бесплатный архив песенных текстов, аккордов, табулатур и нот


Greyhoundz - Bonfires And Sandcastles - аккорды и текст, таба, видео

Регистрация Запомнить меня
Войти через:  Facebook Google Twitter Vk Yandex Mail.ru

Greyhoundz - Bonfires And Sandcastles - аккорды и текст, таба, видео

Печатать
Просмотров: 114
Bonfires And Sandcastles
Greyhoundz
song:bonfires and sandcastles
artist:greyhoundz
song:leander m.
tune 1 whole step D A F C G D
info:


song legend:press ped pitch up ^
            press ped pitch down v

intro:
    ^  ^ v ^ v                ^ v ^ v         ^ v ^ v  ^ v ^ v
D|--9-------------------||-------------------------------------|
A|----9------12-11------||--9--------12-11---------------------|
F|-----------------11/--||-----------------11---------9--------|
C|----------------------||-------------------------------------|
G|----------------------||-------------------------------------|
D|----------------------||-------------------------------------|

stanza:
     ^ v ^ v           ^ v ^ v  ^ v ^  ^ v ^   ^   ^
D|---------------------------------------------------|
A|--9-------12-11----9---------9------12-----11------|
F|----------------11----------------------------11---|
C|---------------------------------------------------|
G|---------------------------------------------------|
D|---------------------------------------------------|

refrain:
D|-----------------------------|
A|-----------------------------|
F|-----------------------------|
C|--6---76---6/7---76---6/7--|
G|--4---54---4/5---54---4/5--|
D|--0-0-0-0-0/0-0-0-0-0/0--|
      .     .     .     .
Interlude/stanza II riff:
     ^ v   ^  ^  ^  ^   ^ v ^  ^  ^    ^
D|--9----------------------------------9--|
A|-------12--12-11-----9------12-11-------|
F|-----------------11---------------11----|
C|----------------------------------------|
G|----------------------------------------|
D|----------------------------------------|
     ^ v ^  ^  ^  ^ v   ^ v ^ v ^ v ^
D|---------------------11---12-11---------|
A|--9------12-11--------------------------|
F|---------------11-----------------11----|
C|----------------------------------------|
G|----------------------------------------|
D|----------------------------------------|

solo:(press pedal pitch down)
D|-----11-12-14^15-14-12-------16-18^20-18-21^23-21^23-22----22^24(3x)-22--|
A|--12-------------------12-14----------------------------22---------------|
F|-------------------------------------------------------------------------|
C|-------------------------------------------------------------------------|
G|-------------------------------------------------------------------------|
D|-------------------------------------------------------------------------|
I hope this is right
                            end
submitted by:leander_85@yahoo.com
                    
                Kc_cut3 
kung mali ito ayusin nyo na lang atleast my batayan na kayo
Добавлено: 17.06.2012
Другие материалы по этой песне:
  • Аккорды и текст

Страница создана 17.03.2012
http://primanota.ru/greyhoundz/bonfires-and-sandcastles-chords.htm
Привет, Гость.
Предлагаем пройти революционный курс по гитаре.
Подарок от PrimaNota.Ru, забирай!