PrimaNota.ru - самый крупный в мире бесплатный архив песенных текстов, аккордов, табулатур и нот


Greyhoundz - Battle Cry - таба, видео

Регистрация Запомнить меня
Войти через:  Facebook Google Twitter Vk Yandex Mail.ru

Greyhoundz - Battle Cry - таба, видео

Печатать
Просмотров: 102
PLS LIKE OUR BAND FAN PAGE @ FACEBOOK -Arista(lucena) http://www.facebook.com/
pages/Arista-Lucena/226729694026830

Note:DROP B

Intro-

|-----------------------------------------------------------------|
|-----------------------------------------------------------------|
|-----------------------------------------------------------------|
|-----------------------------------------------------------------|
|-00-0000-0-00-00-00-0000-0--x--00-0000-0-00-00-00-0000-0---------|
|-00-0000-0-00-00-00-0000-0--x--00-0000-0-00-00-00-0000-0---------|

|-----------------------------------------------------------------|
|-----------------------------------------------------------------|
|-----------------------------------------------------------------|
|-----------------------------------------------------------------|
|-00-0000-0-00-00-00-0000-0--x--00-0000-0-00-00-00-0000-----------|
|-00-0000-0-00-00-00-0000-0--x--00-0000-0-00-00-00-0000-12/-------|

|--------------------------------------------------------------------------|
|--------------------------------------------------------------------------|
|--------------------------------------------------------------------------|
|---3-2+-------------3-2+-------------3-2+---------5555-7777-8888-10101010-|4x
|-00------0-0000---00------0-0000---00------0-0000-5555-7777-8888-10101010-|
|-00------0-0000---00------0-0000---00------0-0000-5555-7777-8888-10101010-|


Verse-
|-----------------------------------------------------------------|
|-----------------------------------------------------------------|
|-----------------------------------------------------------------|
|-0-33---0-77-33-55-22---------0-33---0-77-33-55-22---------------|2x
|-0-33---0-77-33-55-22---------0-33---0-77-33-55-22---------------|
|-0-33---0-77-33-55-22---------0-33---0-77-33-55-22---------------|


|-----------------------------------------------------------------|
|-----------------------------------------------------------------|
|-----------------------------------------------------------------|
|-0---------00-------------------0---------00---------------------|2x
|-0--7-8-7+-00--8+-7+-10+--------0--7-8-7+-00--8+-7+-10+----------|
|-0---------00-------------------0---------00---------------------|


|--------------------------------------------------------------------------|
|--------------------------------------------------------------------------|
|--------------------------------------------------------------------------|
|---3-2+-------------3-2+-------------3-2+---------5555-7777-8888-10101010-|
|-00------0-0000---00------0-0000---00------0-0000-5555-7777-8888-10101010-|
|-00------0-0000---00------0-0000---00------0-0000-5555-7777-8888-10101010-|

Verse2-
|-----------------------------------------------------------------|
|-----------------------------------------------------------------|
|-0-2-0-2-0-2-0-2--5-5-5-5---0-1-0-1-0-1-0-1---0-1-0-1-0-1-0-1----|
|-0-2-0-2-0-2-0-2--5-5-5-5---0-1-0-1-0-1-0-1---0-1-0-1-0-1-0-1----|3x
|-0-2-0-2-0-2-0-2--5-5-5-5---0-1-0-1-0-1-0-1---0-1-0-1-0-1-0-1----|


|-----------------------------------------------------------------|
|-----------------------------------------------------------------|
|-----------------------------------------------------------------|
|--2~-------------5~------------1~--------------------------------|
|--2~-------------5~------------1~--------------------------------|
|--2~-------------5~------------1~--------------------------------|

Chorus-
|-----------------------------------------------------------------|
|-----------------------------------------------------------------|
|-----------------------------------------------------------------|
|-00-2+----00-0---4+/---00-0--7+/----8-7-5--3-2-0--7-5------------|4X
|-00-------00-0---------00-0---------8-7-5--3-2-0--7-5------------|
|-00-------00-0---------00-0---------8-7-5--3-2-0--7-5------------|

Solo-
|-----------------------------------------------------------------|
|-----------------------------------------------------------------|
|-2/4444444444-4h6-4h6-4h6--7/99999999999-9h11-9h11-9h11----------|
|-----------------------------------------------------------------|
|-----------------------------------------------------------------|
|-----------------------------------------------------------------|


|-----------------------------------------------------------------|
|-----------------------------------------------------------------|
|-11/1212121212121212-14h16-14h16-14h16------14^(16)w^w^w---------|
|-----------------------------------------------------------------|
|-----------------------------------------------------------------|
|-----------------------------------------------------------------|


|-13^(15)^(17)---15^(17)(15)--13---------------------------------|
|---------------------------------15~----------------------------|
|--------------------------------------14^w----------------------|
|-------------------------------------------------77-55-75-7-10~-|
|-------------------------------------------6-5-3-77-55-75-7-10~-|
|-------------------------------------------------77-55-75-7-10^-|

Bridge-
|-----------------------------------------------------------------|
|-----------------------------------------------------------------|
|-----------------------------------------------------------------|
|-00-x-6-0-------0-6-0---6---------00-x-6-0-------0-6-0---6-------|4x
|-00-x-6-0-5h6-5-0-6-0-3-6---------00-x-6-0-5h6-5-0-6-0---6-------|
|-00-x-6-0-------0-6-0---6---------00-x-6-0-------0-6-0---6-------|


Chorus-
|-----------------------------------------------------------------|
|-----------------------------------------------------------------|
|-----------------------------------------------------------------|
|-00-2+----00-0---4+/---00-0--7+/----8-7-5--3-2-0--7-5------------|4X
|-00-------00-0---------00-0---------8-7-5--3-2-0--7-5------------|
|-00-------00-0---------00-0---------8-7-5--3-2-0--7-5------------|

Outro-
|-----------------------------------------------------------------|
|-----------------------------------------------------------------|
|-----------------------------------------------------------------|
|-----------------------------------------------------------------|8x
|-00-0000-0-00-00-00-0000-0--x--00-0000-0-00-00-00-0000-0---------|
|-00-0000-0-00-00-00-0000-0--x--00-0000-0-00-00-00-0000-0---------|
Добавлено: 21.02.2012
Другие материалы по этой песне:
  • Аккорды и текст

Страница создана 21.02.2012
http://primanota.ru/greyhoundz/battle-cry-chords.htm
Привет, Гость.
Предлагаем пройти революционный курс по гитаре.
Подарок от PrimaNota.Ru, забирай!