PrimaNota.ru - самый крупный в мире бесплатный архив песенных текстов, аккордов, табулатур и нот


Grey Reverend - To Build A Home - таба, видео

Регистрация Запомнить меня
Войти через:  Facebook Google Twitter Vk Yandex Mail.ru

Grey Reverend - To Build A Home - таба, видео

Печатать
Просмотров: 119
-------------------------------------------------------------------------------
        To Build A Home - Cinematic Orchestra (Grey Reverand cover)
-------------------------------------------------------------------------------
Tabbed by: Tomaski
Email: tom.kirton@yahoo.com

Tuning: Standard
Capo: 2nd fret

Tabs are in accordance to capo, so a '0' in this tab would infact be the 2nd fret 
where the capo is positioned.

Intro

e|-2---------------x------0--------------------------------------------------|
B|-0---------------3------0h2------------------------------------------------|
G|-0---------------2------0--------------------------------------------------|
D|-0---------------0------2--------------------------------------------------|
A|-2---------------5------0--------------------------------------------------|
E|-3---------------x---------------------------------------------------------|

Verse     "There is a house..."

e|---------------------------------2-----------------------------------------|
B|------0---3---4----------3---5-------------2---2---2-------2---2p0---------|
G|------2------------------0-----------------0---0---0-------0---0---0-------|
D|----0---0---0----------0---0---0---------2---2---2-------2---2-------2-----|
A|---------------------5-----------------0---------------0-------------------|
E|--3------------------------------------------------------------------------|

Repeat until "This is a place.."



To add a nice fill to th 2nd chord you can do this..


e|---------------------------------5p0---------------------------------------|
B|------0---3---4----------3---5/7-----------2---2---2-------2---2p0---------|
G|------2------------------0-----------------0---0---0-------0---0---0-------|   
D|----0---0---0----------0---0-------------2---2---2-------2---2-------2-----|
A|---------------------5-----------------0---------------0-------------------|
E|--3------------------------------------------------------------------------|



verse pt2  "this is a place where I..."

e|------------------------------------------------0--------------------------|
B|----------0------------------0--------------3-----3-----------2---2---0----|
G|------2-----2------------2-----2------------0---------0-------0---0---0----|
D|------0---------0--------0---------0------0---0-----0-------2---2---2------|
A|----2---2-----2--------2---2-----2------5-----------------0----------------|
E|--0------------------3-----------------------------------------------------|




chorus  "And I Build..."

for these chords, just follow similar fingerpicking paterns shown above on these chords 


e|----------------0---------------------------------|
B|---0------------3-------3----3-----2--------------|
G|---2------------2-------2----2-----0--------------|
D|---0------------0-------0----0-----2--------------|
A|----------------5------------2-----0--------------|
E|---3------------3---------------------------------|


The same sequences are played throughout the song and it is easy enough to see in the 
video when to play each section. 

Left Hand - Grey usually plays the low string bass notes with his
thumb to reach the notes higher up with his fingers, but it is equally as easy to 
use fingers throughout the song. 

If you are planning on doing the chords a the end of the song when the band kicks 
in I think they are..


e|--0-----0-----0------0-----------------------------------------|
B|--0-----0-----3------2-----------------------------------------|
G|--2-----2-----0------0---------------------------------- ------|
D|--0-----0-----0------2-----------------------------------------|
A|--2-----2-----5------0-----------------------------------------|
E|--0-----3------------------------------------------------------|



************************************

| /   slide up
| \   slide down
| h   hammer-on
| p   pull-off
| ~   vibrato
| +   harmonic
| x   Mute note
| b   Bend
| pb  Pre-bend
| br  Bend release
| pbr Pre-bend release
| brb Bend release bend

************************************
Добавлено: 08.08.2013
Вам также может быть интересно:
Другие материалы по этой песне:
  • Аккорды и текст

Страница создана 08.08.2013
http://primanota.ru/grey-reverend/to-build-a-home-chords.htm
Привет, Гость.
Предлагаем пройти революционный курс по гитаре.
Подарок от PrimaNota.Ru, забирай!