PrimaNota.ru - самый крупный в мире бесплатный архив песенных текстов, аккордов, табулатур и нот


Grey Reverend - One By One - таба, видео

Регистрация Запомнить меня
Войти через:  Facebook Google Twitter Vk Yandex Mail.ru

Grey Reverend - One By One - таба, видео

Печатать
Просмотров: 123
Transcribed on http://www.guitartabcreator.com using the original version from "Of The
Days" (2011) and a live performance from YT (youtube.com/watch?v=G0G2N8q3Xlo). It seems
like he does some stuff differently when playing it live, therefore I'm not entirely 
sure about the 2nd half of the chorus. Also, I am not sure if he really uses this tuning, but
it seemed the easiest like that (for playing the interlude/outro).
Please comment and extend!


Tuning: EADF#BE, Capo on 2rd fret for studio recording key, ca 130 BPM


Intro - 2x

E |----------------------------------|
B |----------------------------------|
F#|----------------------------------|
D |--4---4---4---4---4---4---4---4---|
A |----4---4---4---4---4---4---4---4-|
E |--2---2---2---2---2---2---2---2---|

Verse - 2x

E |-----------------------------------------------------------------|
B |-----------------------------------------------------------------|
F#|-----------------------------------------------------------------|
D |--4---4---4---4---4---4---4---4---6---6---6---6---6---6---6---6--|
A |----4---4---4---4---4---4---4---4---4---4---4---4---4---4---4----|
E |--2---2---2---2---2---2---2---2---0---0---0---0---0---0---0---0--|

E |-----------------------------------------------------------------|
B |-----------------------------------------------------------------|
F#|-----------------------------------------------------------------|
D |--4---4---4---4---4---4---4---4---4---4---4---4---6---6---6---6--|
A |----4---4---4---4---4---4---4---4---4---4---4---4---4---4---4----|
E |--2---2---2---2---2---2---2---2---0---0---0---0---0---0---0---0--|

E |------------------------------------------------------------------|
B |------------------------------------------------------------------|
F#|------------------------------------------------------------------|
D |--4---4---4---4---4---4---4---4---1---1---1---1---0---0---0---0---|
A |----4---4---4---4---4---4---4---4---2---2---2---2---2---2---2---2-|
E |--5---5---5---5---5---5---5---5---2---2---2---2---2---2---2---2---|

E |------------------------------------------------------------------|
B |------------------------------------------------------------------|
F#|------------------------------------------------------------------|
D |--4---4---4---4---4---4---4---4---4---4---4---4---4---4---4---4---|
A |----4---4---4---4---4---4---4---4---4---4---4---4---4---4---4---4-|
E |--2---2---2---2---2---2---2---2---2---2---2---2---2---2---2---0---|

Chorus - 2x

E |------------------------------------------------------------------|
B |------------------------------------------------------------------|
F#|------------------------------------------------------------------|
D |--4---4---4---4---4---4---4---4---1---1---1---1---1---1---1---1---|
A |----5---5---5---5---5---5---5---5---2---2---2---2---2---2---2---2-|
E |--5---5---5---5---5---5---5---5---2---2---2---2---2---2---2---2---|

(Not 100% sure about the next line - I transcribed it after looking at a video of GR
performing the song)

E |------------------------------------------------------------------|
B |------------------------------------------------------------------|
F#|------------------------------------------------------------------|
D |--4---4---4---4---4---4---4---4---4---4---4---4---4---4---4---4---|
A |----7---7---7---7---2---2---2---2---4---4---4---4---4---4---4---4-|
E |--7---7---7---7---2---2---2---2---5---5---5---5---5---5---0---0---|

(The two last 5 frets get 0 as well in the 2nd round)

Interlude & Outro - 1x after each chorus, repeat & fade at the end

E |------------------------------------------------------------------|
B |----------0---------------0---------------0---------------0-------|
F#|------3-------3-------3-------3-------3-------3-------3-------3---|
D |--4---------------4---------------4---------------4---------------|
A |----4---4---4---4---4---4---4---4---4---4---4---4---4---4---4---4-|
E |--2---2---2---2---2---2---2---2---5---5---5---5---5---5---5---5---|

E |------------------------------------------------------------------|
B |----------0---------------0---------------0---------------0-------|
F#|------3-------3-------3-------3-------0-------0-------0-------0---|
D |--4---------------4---------------1---------------1---------------|
A |----4---4---4---4---4---4---4---4---2---2---2---2---2---2---2---2-|
E |--0---0---0---0---0---0---0---0---2---2---2---2---2---2---2---2---|

Different 3rd Verse - 1x

E |------------------------------------------------------------------|
B |------------------------------------------------------------------|
F#|------------------------------------------------------------------|
D |--4---4---4---4---4---4---4---4---6---6---6---6---6---6---6---6---|
A |----4---4---4---4---4---4---4---4---4---4---4---4---4---4---4---4-|
E |--2---2---2---2---2---2---2---2---0---0---0---0---0---0---0---0---|

E |------------------------------------------------------------------|
B |------------------------------------------------------------------|
F#|------------------------------------------------------------------|
D |--7---7---7---7---7---7---7---7---1---1---1---1---1---1---1---1---|
A |----7---7---7---7---7---7---7---7---2---2---2---2---2---2---2---2-|
E |--5---5---5---5---5---5---5---5---2---2---2---2---2---2---2---2---|

E |------------------------------------------------------------------|
B |------------------------------------------------------------------|
F#|------------------------------------------------------------------|
D |--0---0---0---0---0---0---0---0---6---6---6---6---6---6---4---4---|
A |----2---2---2---2---2---2---2---2---4---4---4---4---4---4---4---4-|
E |--2---2---2---2---2---2---2---2---0---0---0---0---0---0---0---0---|

E |----------------------------------------------------------------|
B |----------------------------------------------------------------|
F#|----------------------------------------------------------------|
D |--4---4---4---4---4---4---4---4---4---4---4---4---4---4---4---4-|
A |----4---4---4---4---4---4---4---4---4---4---4---4---4---4---4---|
E |--2---2---2---2---2---2---2---2---2---2---2---2---2---2---2---2-|
Добавлено: 23.07.2013
Другие материалы по этой песне:

Страница создана 23.07.2013
http://primanota.ru/grey-reverend/one-by-one-chords.htm
Привет, Гость.
Предлагаем пройти революционный курс по гитаре.
Подарок от PrimaNota.Ru, забирай!