PrimaNota.ru - самый крупный в мире бесплатный архив песенных текстов, аккордов, табулатур и нот


Grey Holiday - Revolution - таба, видео

Регистрация Запомнить меня
Войти через:  Facebook Google Twitter Vk Yandex Mail.ru

Grey Holiday - Revolution - таба, видео

Печатать
Просмотров: 113
Уроки эстрадного вокала в Санкт-Петербурге
I have been looking for years to find this tab, so I finally got off my butt and 
made one myself. took a while, so be thankful!

/ = Slide Up To

Lead Guitar:

E||-----/6---------2----------------------------------|    
B||-----------2-----------2----2--2--3--2-------------|
G||---------------------------------------------------|
D||---------------------------------------------------|
A||---------------------------------------------------|
D||---------------------------------------------------|
                                                                  x2
|------7--------------------------------------------|
|-------------2---2---3---3----3--3----2--0---------|
|---------------------------------------------------|
|---------------------------------------------------|
|---------------------------------------------------|
|---------------------------------------------------|

Rhythm Guitar:


E||-------------------------------------------------|
B||-------------------------------------------------|
G||-------------------------------------------------|
D||-------------------------------------------------|
A||--3--3-----3--3--3-----3-----3-----3--3--3--3----|
D||--3--3-----3--3--3-----3-----3-----3--3--3--3----|

                                                                 x2
|-----------------------------------------------------||
|-----------------------------------------------------||
|-----------------------------------------------------||
|-----------------------------------------------------||
|--7--7-----7--7--7-----7-------7-----7--7--7--7------||
|--7--7-----7--7--7-----7-------7-----7--7--7--7------||


Second time, play this

Lead:
|------7--------------------------------------------||
|-------------2---2---3---3----3--3--3--3-----------||
|---------------------------------------------------||
|---------------------------------------------------||
|---------------------------------------------------||
|---------------------------------------------------||

Rhythm:
|-----------------------------------------------------||
|-----------------------------------------------------||
|-----------------------------------------------------||
|-----------------------------------------------------||
|--7--7-----7--7--7-----7-------7-----7--7--7--7--7---||
|--7--7-----7--7--7-----7-------7-----7--7--7--7--7---||
Добавлено: 14.03.2012
Другие материалы по этой песне:
  • Аккорды и текст

Страница создана 14.03.2012
http://primanota.ru/grey-holiday/revolution-chords.htm
Привет, Гость.
Предлагаем пройти революционный курс по гитаре.
Подарок от PrimaNota.Ru, забирай!