PrimaNota.ru - самый крупный в мире бесплатный архив песенных текстов, аккордов, табулатур и нот


Greta Salóme - Lifnar Aftur Við - аккорды и текст, видео

Регистрация Запомнить меня
Войти через:  Facebook Google Twitter Vk Yandex Mail.ru

Greta Salóme - Lifnar Aftur Við - аккорды и текст, видео

Печатать
Просмотров: 88
Lifnar Aftur Við
Greta Salóme
Intro pattern:

e|---------------------------------|---------------------------------|
B|-----------------1---------------|-----------------1---------------|
G|---------0---------------0-------|---------0---------------0-------|
D|-----0h2-----2-------2-------3---|-----0h2-----2-------2-------3---|
A|-3-------------------------------|-3-------------------------------|
E|---------------------------------|---------------------------------|
   1   +   2   +   3   +   4   +     1   +   2   +   3   +   4   +   
   C                                 C

e|-----------------1---------------|-----------------1--(ring)-------|
B|---------1---------------1-------|---------1-----------------------|
G|-----0h2-----2-------2-------2---|-----0h2-----2-------------------|
D|-3-------------------------------|-3-------------------------------|
A|---------------------------------|---------------------------------|
E|---------------------------------|---------------------------------|
   1   +   2   +   3   +   4   +     1   +   2   +   3   +   4   +   
   F                                 F

ORDER: I V1 C INT V2 C B FC

[INTRO]
C C F F


[VERSE 1]
 Am    F
 Eilíf augnablik
   C            C      C G/B
 Í huga mínum halda til
    Am    F         C      Cadd9
 Og minna á sig við og við
 Am    F
 Falin hugrenning
C        C       C  G/B
 Og óræð tilfinning
 Am    F         C     Cadd9
 Bærir á sér við og við
    Am   G    F                     Dm
 Úr klakaböndunum við brjótum okkur leið


[CHORUS 1]
   F
Og sumarið
      C            Em
Snýr aftur, kemur aftur

Og þá ég
F
Veit að við
     C            Em             Dm
Og aftur snúum, aftur eftir veturinn
C           Bb     G
Þá lifnar aftur við
G7
Sumarið


[INTERLUDE]
C C F F


[VERSE 2]
 Am     F
 Rauður himininn
    C         C      C  G/B
 Og andvaka morguninn
 Am     F           C     Cadd9
 Jörðin syngur undrahljótt
 Am
 Spor í sandi
  F
 Dögg í grasi
C             C    C G/B
 Sólargull í hárinu
 Am       F       C        Cadd9
 Hljóðnar dagur kemur nótt.
    Am   G  F                       Dm
 Úr klakaböndunum við brjótum okkur leið


[CHORUS 2]
   F
Og sumarið
      C             Em/B
Snýr aftur, kemur aftur

Og þá ég
F
Veit að við
   C              Em
Og aftur snúum, aftur eftir vetur-

   F
Og sumarið
      C             Em
Snýr aftur, kemur aftur

Og þá ég
F
Veit að við
   C              Em             Dm
Og aftur snúum, aftur eftir veturinn

C           Bb     G
Þá lifnar aftur við
G7  F7M  
Sumarið


[BRIDGE]
( F7M   )                         Am7
  klakaböndunum við brjótum okkur leið
                G                 F
  klakaböndunum við brjótum okkur leið
                                  Am7
  klakaböndunum við brjótum okkur leið
                G                 G
  klakaböndunum við brjótum okkur leið


[FINAL CHORUS] - accordion swells on the first chord
 ( F )
Og sumarið
       C            Em
Snýr aftur, kemur aftur

Og þá ég
F
Veit að við
    C             Em
Og aftur snúum, aftur eftir vetur-
   F
Og sumarið
       C            Em
Snýr aftur, kemur aftur

Og þá ég
F
Veit að við
     C            Em             Dm
Og aftur snúum, aftur eftir veturinn
C           Bb
Þá lifnar aftur við
Добавлено: 24.12.2015
Вам также может быть интересно:
Другие материалы по этой песне:
  • Аккорды и текст

Страница создана 24.12.2015
http://primanota.ru/greta-salome/lifnar-aftur-vi-chords.htm
Привет, Гость.
Предлагаем пройти революционный курс по гитаре.
Подарок от PrimaNota.Ru, забирай!