PrimaNota.ru - самый крупный в мире бесплатный архив песенных текстов, аккордов, табулатур и нот


Gregory And The Hawk - Young One - таба, видео

Регистрация Запомнить меня
Войти через:  Facebook Google Twitter Vk Yandex Mail.ru

Gregory And The Hawk - Young One - таба, видео

Печатать
Просмотров: 122
Okay this is the first tab I've ever done... and I've only been playing for about a 
so be nice. @__@;

This is the song "Young One" Which, as far as I know of, isn't available for download 
It's one of their singles and I found it on their site in a video Meredith made. :3
www.gregoryandthehawk.com
Any questions/corrections... karawestern@shaw.ca

CAPO on 1st Fret!
Repeat each section as needed and play around with how many times you pick the 
it's really easy to get!

VERSE
e--------------------------------------------------------------------|
B--------------------------------------------------------------------|
G-----4----4----4----0----0----0----0----0----4----4----4----0-------|
D--------------------------------------------------------------------|
A---5----5----5----0------------------------5----5----5----0---------|
E-----------------------3----3----3----3-----------------------------|
Young one, I don't want to be the young one.
Stumbling, getting bored before too long.
----
*Young one, want to make love to the young one.
Passionate and ticklish in it's freedom.
----
Loved one, the one who loves you is a young one.
Bubbly, getting bored before too long.

CHORUS
e------------------------------------------------------|
B------------------------------------------------------|
G------2----3----2----2----4----4----0----0------------|
D------------------------------------------------------|
A---3----3----0----2-----------------------------------|
E----------------------3----3----3----3----------------|
Plucking away at vulnerable heart strings
In the endless stream of consciousness which plagues you.
----
A cradle for the ficklish frame of fate.
In the endless rhymes of conscious mind that fails you.
----
Plucking away at vulnerable heart strings
Hoping you'll love as much as she.

e---------------------------------------------------------------|
B---------------------------------------------------------------|
G-----2----2----2----2----2----2----2----2----4----4----0----0--|
D---------------------------------------------------------------|
A---3----3----0----2----3----3----0----2------------------------|
E-------------------------------------------3----3----3----3----|
It's gonna become true.
You're gonna change your ways.
You're gonna wake up someday.

Repeat the same thing for each verse... but here are some other parts of the song that 
a bit different..

e--------------------------------|
B--------------------------------|  Repeat 5 times then...
G------2----2----2----2----------|
D--------------------------------|
A---3----3----0----2-------------|
E--------------------------------|
*It's gonna become true.
You're gonna change your ways.
You're gonna wake up someday.
You're gonna wake up someday.

e-------------------------------|
B-------------------------------|
G------4----4---4----4----------|
D-------------------------------|
A-------------------------------|
E---3----3----3----3------------|

VERY ENDING
e----------------------------------------------------------------|
B----------------------------------------------------------------|
G-----2----2----2----2----2----2----2----2----2----2----2----2---|
D----------------------------------------------------------------|
A---3----3----0----2----3----3----0----2----3----3----0----2-----|
E----------------------------------------------------------------|


e--------------------------------------------------------|
B--------------------------------------------------------|
G-----4----4----0----0----2----2----2----2----0----0-----|
D--------------------------------------------------------|
A-----------------------3----3----0----2-----------------|
E---3----3----3----3------------------------3----3----3--|
Will it become true?
You're willing to be true.
But it will wake you up someday.
Oh it will wake you up someday.
Добавлено: 06.05.2012
Другие материалы по этой песне:
  • Аккорды и текст

Страница создана 06.05.2012
http://primanota.ru/gregory-and-the-hawk/young-one-chords.htm
Привет, Гость.
Предлагаем пройти революционный курс по гитаре.
Подарок от PrimaNota.Ru, забирай!