PrimaNota.ru - самый крупный в мире бесплатный архив песенных текстов, аккордов, табулатур и нот


Gregory And The Hawk - Wild West - таба, видео

Регистрация Запомнить меня
Войти через:  Facebook Google Twitter Vk Yandex Mail.ru

Gregory And The Hawk - Wild West - таба, видео

Печатать
Просмотров: 97
tuning: [D]AD[F#]BE

capo 1


INTRO:
|---------------------------------------------------------------------------------|
|---------------------------------------------------------------------------------|
|------0---------7---------0---------0---------0---------0-----------0------------|
|--7-------7-7-------7-7-------7-7-------7-5-------5-5-------5-5~4-------4-4------|
|----5---5-----0---0-----0---0-----0---0-----0---0-----0---0-------0---0-----0-0--|
|--0---------4---------0---------0---------0---------0---------0-----------0------|


VERSE:
   When the end comes...
|---------------------------------------------------------------------------------|
|---------------------------------------------------------------------------------|
|------0---------7---------0---------0---------0---------0-----------0------------|
|--7-------7-7-------7-7-------7-7-------7-5-------5-5-------5-5~4-------4-4------| repeat...
|----5---5-----0---0-----0---0-----0---0-----0---0-----0---0-------0---0-----0-0--|
|--0---------4---------0---------0---------0---------0---------0-----------0------|

   In order not to worry...
|-----------------------------------------------------------------------------------|
|----------3---------3---------3---------3---------3---------3---------3---------3--|
|------0---------0---------0---------0---------0---------0---------0---------0------|
|--0---------0---------2---------2---------2---------2---------2---------2----------| 2x
|----2---2-----2---2-----2---2-----2---2-----0---0-----0---0-----0---0-----0---0----|
|--0---------0---------0---------0---------2---------2---------2---------2----------|


REF:
   Rise young sun...
|-----------------------------------------------------------------------------------|
|----------5---------5---------4---------4---------2---------0---------0---------0--|
|------0---------0---------0---------0---------0---------0---------0---------0------|
|--0---------0---------1---------1---------0---------0---------0---------0----------| 2x
|----2---2-----2---2-----0---0-----0---0-----2---2-----2---2-----2---2-----2---2----|
|--5---------5---------4---------4---------2---------2---------2---------2----------|

   for the wild west to accept the excess..
|-----------------------------------------------------------------------------------|
|----------3---------3---------3---------3---------3---------3---------3---------3--|
|------0---------0---------0---------0---------0---------0---------0---------0------|
|--0---------0---------2---------2---------2---------2---------2---------2----------|
|----2---2-----2---2-----2---2-----2---2-----0---0-----0---0-----0---0-----0---0----|
|--0---------0---------0---------0---------2---------2---------2---------2----------|


VERSE:
   When the end comes you'll see fields of green beyond your reach
|---------------------------------------------------------------------------------|
|---------------------------------------------------------------------------------|
|------0---------7---------0---------0---------0---------0-----------0------------|
|--7-------7-7-------7-7-------7-7-------7-5-------5-5-------5-5~4-------4-4------|
|----5---5-----0---0-----0---0-----0---0-----0---0-----0---0-------0---0-----0-0--|
|--0---------4---------0---------0---------0---------0---------0-----------0------|

   and heartbeats
|-----------------------------------------------------------------------------------|
|----------5---------5---------4---------4---------2---------0---------0---------0--|
|------0---------0---------0---------0---------0---------0---------0---------0------|
|--0---------0---------1---------1---------0---------0---------0---------0----------|
|----2---2-----2---2-----0---0-----0---0-----2---2-----2---2-----2---2-----2---2----|
|--5---------5---------4---------4---------2---------2---------2---------2----------|


REF:
   Rise young sun...
|-----------------------------------------------------------------------------------|
|----------5---------5---------4---------4---------2---------0---------0---------0--|
|------0---------0---------0---------0---------0---------0---------0---------0------|
|--0---------0---------1---------1---------0---------0---------0---------0----------| 2x
|----2---2-----2---2-----0---0-----0---0-----2---2-----2---2-----2---2-----2---2----|
|--5---------5---------4---------4---------2---------2---------2---------2----------|

   for the fool's gain...
|-----------------------------------------------------------------------------------|
|----------3---------3---------3---------3---------3---------3---------3---------3--|
|------0---------0---------0---------0---------0---------0---------0---------0------|
|--0---------0---------2---------2---------2---------2---------2---------2----------|
|----2---2-----2---2-----2---2-----2---2-----0---0-----0---0-----0---0-----0---0----|
|--0---------0---------0---------0---------2---------2---------2---------2----------|

   aaaaaaaaah...
|-----------------------------------------------------------------------------------|
|----------5---------5---------4---------4---------2---------0--------0----------0--|
|------0---------0---------0---------0---------0---------0---------0---------0------|
|--0---------0---------1---------1---------0---------0---------0---------0----------|
|----2---2-----2---2-----0---0-----0---0-----2---2-----2---2-----2---2-----2---2----|
|--5---------5---------4---------4---------2---------2---------2---------2----------|

   aaaaaaaaah...
|-----------------------------------------------------------------------------------|
|----------5---------5---------4---------4---------2---------3---------3---------3--|
|------0---------0---------0---------0---------0---------0---------0---------0------|
|--0---------0---------1---------1---------0---------0---------0---------0----------|
|----2---2-----2---2-----0---0-----0---0-----2---2-----2---2-----2---2-----2---2----|
|--5---------5---------4---------4---------2---------2---------2---------2----------|

|----------------------------------------------------------------------------|
|----------3---------2---------0---------3---------3---------3---------3-----|
|------0---------0---------0---------0---------0---------0---------0---------|
|--0---------0---------0---------0---------0---------0---------0-------------|
|----2---2-----2---2-----2---2-----2---2-----2---2-----0---0-----0---0-------|
|--2---------2---------2---------2---------2---------0---------0-------------|

|----------------------------------------------------------------------------|
|----------3---------3---------3---------3---------3---------3---------3-----|
|------0---------0---------0---------0---------0---------0---------0---------|
|--0---------0---------0---------0---------0---------0---------0-------------|
|----2---2-----2---2-----0---0-----0---0-----2---2-----2---2-----2---2-------|
|--2---------2---------0---------0---------2---------2---------2-------------|

|----------------------------------------------------------------------------|
|----------3---------3---------2---------0-----------------------------------|
|------0---------0---------0---------0---------------------------------------|
|--0---------0---------0---------0-------------------------------------------|
|----2---2-----2---2-----2---2-----2---2-------------------------------------|
|--2---------2---------2---------2-------------------------------------------|

____________________________________________________________________________________________

when the end comes
you'll see hydrogen electrolyzed
you're amazed at the cold you see, the fire by your face
bitter bloom
flightless skies
the fear the doom it's no surprise
realize, there's no sense in losing your mind before your time

in order not to worry you write the words down
but it's a fool's game and your game face is shameful

rise youngs sun you're a tireless one
and you'll be back, burning
when the morning comes when you catch my soul upon waking
will you make a wish
for the wild west to accept the excess?

when the end comes you'll see fields of green beyond your reach
and heartbeats

rise young sun, you're a tireless one and you'll be back burning
when the morning comes
when you catch my sould upon waking
will you make a wish
for the fool's gain to equal his insane?


21.07.2009.
Добавлено: 05.04.2012
Другие материалы по этой песне:
  • Аккорды и текст

Страница создана 05.04.2012
http://primanota.ru/gregory-and-the-hawk/wild-west-chords.htm
Привет, Гость.
Предлагаем пройти революционный курс по гитаре.
Подарок от PrimaNota.Ru, забирай!