PrimaNota.ru - самый крупный в мире бесплатный архив песенных текстов, аккордов, табулатур и нот


Gregory And The Hawk - The Point Sometimes - текст песни, таба, видео

Регистрация Запомнить меня
Войти через:  Facebook Google Twitter Vk Yandex Mail.ru

Gregory And The Hawk - The Point Sometimes - текст песни, таба, видео

Печатать
Просмотров: 133


INTRO:

|-------------------------------------------------------------------|
|----0-------0-------0-------0-------0-------0-------0-------0------|
|--------2-------2-------2-------2-------2-------2-------2-------2--|
|--0-------0-------0-------0-----------2-------2-------2-------2----|
|------2-------2-------2-------2---4-------4-------4-------4--------|
|-------------------------------------------------------------------|


VERSE:

   Get rid of the ocean...
|-------------------------------------------------------------------|
|----0-------0-------0-------0-------0-------0-------0-------0------|
|--------2-------2-------2-------2-------2-------2-------2-------2--|
|--0-------0-------0-------0-----------2-------2-------2-------2----|
|------2-------2-------2-------2---4-------4-------4-------4--------|
|-------------------------------------------------------------------|
....

  I'm a changer...
|-----------------------------------|
|----0-------0-------0-------0------|
|--------2-------2-------2-------2--|
|------2-------2-------2-------2----|
|--4-------4-------4-------4--------|
|-----------------------------------|


REF:

   This breeze blew in..
|-------------------------------------------------------------------|
|--------0-------0-------0-------0-------0-------0-------0-------0--|
|------2-------2-------2-------2-------2-------2-------2-------2----|
|----2-------0-------0-------0-------2-------0-------2-------2------|
|--0---------------2---------------4-------2-------4-------4--------|
|----------2---------------2----------------------------------------|

|-------------------------------------------------------------------|
|--------0-------0-------0-------0-------0-------0-------0-------0--|
|------2-------2-------2-------2-------2-------2-------2-------2----|
|----2-------0-------0-------0-------2-------2-------0-------0------|
|--0---------------2---------------4-------4-------2-------2--------|
|----------2---------------2----------------------------------------|

|-------------------------------------------------------------------|
|--------0-------0-------0-------0-------0-------0-------0-------0--|
|------2-------2-------2-------2-------2-------2-------2-------2----|
|----2-------2-------0-------0-------2-------2-------2-------2------|
|--4-------4-------2-------2-------4-------4-------4-------4--------|
|-------------------------------------------------------------------|


VERSE...


REF...


BRIDGE:

|--------0-------0-------0-------0----------------------------------|
|----------------------------------------3-------3-------3-------3--|
|------2-------2-------2-------2-------2-------2-------2-------2----|
|----2-------2-------2-------2-------0-------0-------0-------0------|
|--4-------4-------4-------4-------2-------2-------2-------2--------|
|-------------------------------------------------------------------|

|-------------------------------------------------------------------|
|--------1-------1-------1-------1-------1-------0-------0-------0--|
|------2-------2-------2-------2-------0-------0-------0-------0----|
|----2-------2-------2-------2-------2-------2-------2-------2------|
|--0-------0-------0-------0----------------------------------------|
|----------------------------------3-------3-------3-------3--------|

VERSE...

________________________________________________________________________


Get rid of the ocean
if you ever wanna see me again
our shores are separating
with or without a boat
and you know that nothing lasts forever
and depending on the weather
I'm a changer
and I know that if November had been deader
if we'd hidden a bit better
we'd be strangers

and this breeze blew in
with a glitch in the tide
disguised as storm free
begging you please to take a ride
well soften your sails and take a ride
open the wings and let her fly

and I can't see the point sometimes
you're a rock, I'm a gull
might be okay to stay if you could hold me
but you got no way to do so
and you know
that as the world rises
possible perch shrinks in size
and I'll take off

and this breeze blew in
with a glitch in the tide
disguised as storm free
begging you please to take a ride
well soften your sails and take a ride
open the wings
and let her fly

and you know that nothing lasts forever
and depending on the weather
I'm a changer
I'm a changer
I'm a changer
I'm a changer
Добавлено: 26.05.2012
Другие материалы по этой песне:
  • Аккорды и текст

Страница создана 21.02.2012
http://primanota.ru/gregory-and-the-hawk/the-point-sometimes-chords.htm
Привет, Гость.
Предлагаем пройти революционный курс по гитаре.
Подарок от PrimaNota.Ru, забирай!