PrimaNota.ru - самый крупный в мире бесплатный архив песенных текстов, аккордов, табулатур и нот


Gregory And The Hawk - Sweet Winter Hello - таба, видео

Регистрация Запомнить меня
Войти через:  Facebook Google Twitter Vk Yandex Mail.ru

Gregory And The Hawk - Sweet Winter Hello - таба, видео

Печатать
Просмотров: 151
Уроки эстрадного вокала в Санкт-Петербурге
capo 1

INTRO:
|----------------------------------------|
|--3-------3~5-------5-------5~0---------|
|------0---------0-------0---------0-----|
|----0---------0-------0---------0-------|
|--2-----2-2~3-----3-0-----0-0-----------|
|------------------------------------0---|


VERSES1,2:
    To the hills...
    To the fall...
|----------------------------------------|
|--3-------3~5-------5-------5~0---------|
|------0---------0-------0---------0-----|
|----0---------0-------0---------0-------| repeat...
|--2-----2-2~3-----3-0-----0-0-----------|
|------------------------------------0---|

   Steal my sun...
|---------------------------------|
|--4-4-------4-------------3------|
|--------0-------0-0-----0--------|
|--2-2-----2-----5-5---5----------|
|--3-3-0-------0-2-2-2-------0----|
|---------------------------------|

|----------3-------------------------------------------0-----------------|
|--0---0-------0---0~1---3---0~1---3---0-------0-----------0---0---------|
|----0-------0-----------------------------2-------2---------------2-----|
|--2-----2-2-----2-----2---------2-------2-------2-------2-------2-------|
|------------------3-------3-3-------3-0-----0-0-----0-0-----0-0-----0---|
|------------------------------------------------------------------------|

|--3-------3-------------------------0---0---0-------0-------0-------0-----|
|--0---0---0---0---0~1---3---0~1---3-0---0---0---0---0---0---0~1~0---0-----|
|------------------------------------------------2-------2-----------------|
|----2-------2---------2---------2-----2-------2-------2-------------------|
|--0-----0-0-----0-3-------3-3-------0-----0-0-----0-0-----0-0-----0---0---|
|--------------------------------------------------------------------------|


VERSE3:
    In the times...
|----------------------------------------|
|--3-------3~5-------5-------5~0---------|
|------0---------0-------0---------0-----|
|----0---------0-------0---------0-------| repeat...
|--2-----2-2~3-----3-0-----0-0-----------|
|------------------------------------0---|


VERSE4:
  Keep an eye...
|---------------------------------|
|--4-4-------4-------------3------|
|--------0-------0-0-----0--------|
|--2-2-----2-----5-5---5----------|
|--3-3-0-------0-2-2-2-------0----|
|---------------------------------|

|----------------------------------------|
|--3-------3~5-------5-------5~0---------|
|------0---------0-------0---------0-----|
|----0---------0-------0---------0-------| 2x
|--2-----2-2~3-----3-0-----0-0-----------|
|------------------------------------0---|

VERSE5:
    To the hills...
|----------------------------------------|
|--3-------3~5-------5-------5~0---------|
|------0---------0-------0---------0-----|
|----0---------0-------0---------0-------| repeat...
|--2-----2-2~3-----3-0-----0-0-----------|
|------------------------------------0---|


END:
|--3---------------------------------|
|------0---0~1---3---0-------0~1~0---|
|----0-------------------2-----------|
|--2-----2-----2-------2-------------|
|----------3-------3-0-----0-0-------|
|------------------------------------|


___________________________________________________________________________________


to the hills, to the hills, to the hills we go,
bring all of your fog and smoke,
bring all of the friends you know,
to the hills we go

to the fall, to the fall, to the fall we blow
goodbye kisses, bid winter hello
feel the pine needles give way below,
winter, sweet winter hello

steal my sun, ill be your only one

in the times, in the times, in the times we know,
life takes money, and money makes more
like your lovely heart lets it grow,

keep an eye on the silent sky,
see the splender in a shore ride,
be the slow falling snow
in the times we know

to the hills, to the hills, to the hills we go,
bring all of your fog and smoke,
bring all of the friends you know,
to the hills we go
Добавлено: 15.04.2012
Другие материалы по этой песне:
  • Аккорды и текст

Страница создана 15.04.2012
http://primanota.ru/gregory-and-the-hawk/sweet-winter-hello-chords.htm
Привет, Гость.
Предлагаем пройти революционный курс по гитаре.
Подарок от PrimaNota.Ru, забирай!