PrimaNota.ru - самый крупный в мире бесплатный архив песенных текстов, аккордов, табулатур и нот


Gregory And The Hawk - Stone Wall Stone Fence - таба, видео

Регистрация Запомнить меня
Войти через:  Facebook Google Twitter Vk Yandex Mail.ru

Gregory And The Hawk - Stone Wall Stone Fence - таба, видео

Печатать
Просмотров: 131
capo 1


VERSE:

   F#                            Esus4
|------------------------------------------------------------------|
|------------------------------------------------------------------|
|------2-------2-------2------2------2-------2-------2-------2-----|
|--3-------3-------3------3------2-------2-------2-------2---------|
|----3-------3-------3------3------2-------2-------2-------2-------|
|--1-----1-1-----1-1----1-1----1-0-----0-0-----0-0-----0-0-----0---|

sometimes it ends like this:
|----------------------|
|----------------------|
|--1-------1-----------|
|------2-------2-------|
|----2-------2---------|
|--0-----0-0-----0-----|


REF (INSTRUMENTAL):

|-------------------------------------------------|
|-------------------------------------------------|
|---0-2---2---0-2---2---0-2---2-----2-------------|
|-------2---------0---------0-------0-------------|  repeat...
|---0-------0-0-2-----2-2-3-----3-3---3-----------|
|-------------------------------------------------|


Big open land,
You hold the weight of the air in your hands
Big open air,
You feel the tickle of the trees on your chest
Why'd you go and waste it
The things that you know
Are making you a stone wall, stone fence
Your stories so old you just tend to keep them

Long winding road,
You've got a secret but you won't share it
Добавлено: 15.03.2012
Другие материалы по этой песне:
  • Аккорды и текст

Страница создана 15.03.2012
http://primanota.ru/gregory-and-the-hawk/stone-wall-stone-fence-chords.htm
Привет, Гость.
Предлагаем пройти революционный курс по гитаре.
Подарок от PrimaNota.Ru, забирай!