PrimaNota.ru - самый крупный в мире бесплатный архив песенных текстов, аккордов, табулатур и нот


Gregory And The Hawk - Season Poem - таба, видео

Регистрация Запомнить меня
Войти через:  Facebook Google Twitter Vk Yandex Mail.ru

Gregory And The Hawk - Season Poem - таба, видео

Печатать
Просмотров: 173
Уроки эстрадного вокала в Санкт-Петербурге
-------------------------------------------------------------------------------
                             Season Poem--Gregory and the Hawk
-------------------------------------------------------------------------------
This is a beautifully written song but also quite difficult to play.

(You will find that the transitions from one position
to the next can be rather tricky. Sometimes, when you
have to hold down on the same fret for the 5th and 6th
string (like 4th fret), you'll want to do so with your
thumb. Other times you can barre them with your index finger.
Take note that depending upon your barring or thumbing, the 5th
fret on the B string could be played easier by plucking the
open e string.

Also you can try to keep your middle finger on the 3rd fret
of the 3rd string since that note is played throughout most of
the song. Try and see what works for you.)


Tabbed by:exterious
Email:exterious@gmail.com

Tuning:[D] A D [F] B e
Relative to capo on 4th fret

Verse:
  One    by        one     The days fall beside us               Like yellow leaves
e|--------0-------------------0------------------2---------------------------|
B|------------------2-------------------2-----------------4--------5--------2|
F|--3--3h4----3--3h4----3--3h4----3--3h4----3--3-----3--3-----3--3-----3--3--|
D|---------------------------------------------------------------------------|
A|0-4-0-----0-4-0-----0-4-0-----0-4-0-------2--------2--------2--------2-----|
D|----------------------------------------2---2-2--2---2-2--2---2-2--2---2-2-|
              We have               no conscience             Oh, what we're becoming
e|--------0-------------------0---------------------------2------------------|
B|------------------2-------------------2--------4-----------------5--------2|
F|--3--3h4----3--3h4----3--3h4----3--3h4----3--3-----3--3-----3--3-----3--3--|
D|---------------------------------------------------------------------------|
A|0-4-0-----0-4-0-----0-4-0-----0-4-0-------2--------2--------2--------2-----|
D|----------------------------------------2---2-2--2---2-2--2---2-2--2---2-2-|

e|-----------------------------------------------4--------0------------------|
B|--------4---------5---------5---------2---0--0-----0--0-----0--0-2---0--0-2|
F|--4--3h4----4--3h4----4--3h4----4--3h4-------------------------------------|
D|---------------------------------------------------------------------------|
A|--4---------4---------4---------4---------2--------2--------2--------2-----|
D|4---4-----4---4-----2---2-----2---2-----2---2-2--2---2-2--2---2-2--2---2-2-|
  Month   by     month  the rings on our tree trunks           Like old wise eyes
e|--------0-------------------0------------------2---------------------------|
B|------------------2-------------------2-----------------4--------5--------2|
F|--3--3h4----3--3h4----3--3h4----3--3h4----3--3-----3--3-----3--3-----3--3--|
D|---------------------------------------------------------------------------|
A|0-4-0-----0-4-0-----0-4-0-----0-4-0-------2--------2--------2--------2-----|
D|----------------------------------------2---2-2--2---2-2--2---2-2--2---2-2-|

                Grow wider           and winter        Lends them a dead disguise
e|--------0-------------------0------------------2---------------------------|
B|------------------2-------------------2-----------------4--------5--------2|
F|--3--3h4----3--3h4----3--3h4----3--3h4----3--3-----3--3-----3--3-----3--3--|
D|---------------------------------------------------------------------------|
A|0-4-0-----0-4-0-----0-4-0-----0-4-0-------2--------2--------2--------2-----|
D|----------------------------------------2---2-2--2---2-2--2---2-2--2---2-2-|
 Bridge:
e|---------------------------------------------------------------------------|
B|--4----4--4----4--4----4--4----2--2----2--4----2--2----2--4----4--4----4--4|
F|-----3-------3-------3-------3-------3-------3-------3-------3-------3-----|
D|--2---2---2---2---2---2---2---2---2---2---2---2---2---2---2---2---2---2---2|
A|4---4---4---4---4---4---4---4---2---2---2---2---2---2---2---2---4---4---4--|
D|---------------------------------------------------------------------------|

e|-----------------------------------2--2----7--7-----| 
B|---4--4----4--4----2--4----4--4---------------------|
F|-3-------3-------3-------3-------3-------3-------3--|
D|--2---2---2---2---2---2---2---2---2---2---2---2---2-|
A|4---4---4---4---4---2---2---2---2---2---2---2---2---|
D|----------------------------------------------------|

Chorus:
 Now time like an ocean knows tide like a notion to toss about the house and
                                                       lose inside the couch
e|---------------------------------------------------------------------------|
B|--------4---------5---------5---------2------------------------------------|
F|--4--3h4----4--3h4----4--3h4----4--3h4----3--3-3---3--3-3---3--3-3---3--3-3|
D|---------------------------------------------------------------------------|
A|--4---------4---------4---------4---------2--------2--------2--------2-----|
D|4---4-----4---4-----2---2-----2---2-----2---2-2--2---2-2--2---2-2--2---2-2-|
And piles of our thoughts run miles in the dark  just trying to get home
e|-----------------------------------------------4-----------------0---------|
B|--------4---------5---------5---------2---0--0-----0--0-2---0--0-----0--0-2|
F|--4--3h4----4--3h4----4--3h4----4--3h4-------------------------------------|
D|---------------------------------------------------------------------------|
A|--4---------4---------4---------4---------2--------2--------2--------2-----|
D|4---4-----4---4-----2---2-----2---2-----2---2-2--2---2-2--2---2-2--2---2-2-|
Verse:
 Age        by       age        we rhyme with our seasons               Rehearsed routines
e|--------0-------------------0------------------2---------------------------|
B|------------------2-------------------2-----------------4--------5--------2|
F|--3--3h4----3--3h4----3--3h4----3--3h4----3--3-----3--3-----3--3-----3--3--|
D|---------------------------------------------------------------------------|
A|0-4-0-----0-4-0-----0-4-0-----0-4-0-------2--------2--------2--------2-----|
D|----------------------------------------2---2-2--2---2-2--2---2-2--2---2-2-|
             Still turning             and returning
e|--------0-------------------0------------------2---------------------------|
B|------------------2-------------------2-----------------4--------5--------2|
F|--3--3h4----3--3h4----3--3h4----3--3h4----3--3-----3--3-----3--3-----3--3--|
D|---------------------------------------------------------------------------|
A|0-4-0-----0-4-0-----0-4-0-----0-4-0-------2--------2--------2--------2-----|
D|----------------------------------------2---2-2--2---2-2--2---2-2--2---2-2-|
  Pre-chorus:
e|-----------------------2--7-----|
B|--4----4--4----2--4-------------|
F|-----3-------3-------3-------3--|
D|--2---2---2---2---2---2---2---2-|
A|4---4---4---4---2---2---2---2---|
D|--------------------------------|
Chorus 2:
 Now time like an ocean knows tide like a notion to toss about the house and
                                                       lose inside the couch
e|-----------------------------------------------4--------0--------0---------|
B|--------4---------5---------5---------2---0--0-----0--0-----0--0-2---0--0-2|
F|--4--3h4----4--3h4----4--3h4----4--3h4-------------------------------------|
D|---------------------------------------------------------------------------|
A|--4---------4---------4---------4---------2--------2--------2--------2-----|
D|4---4-----4---4-----2---2-----2---2-----2---2-2--2---2-2--2---2-2--2---2-2-|
 And piles of our thoughts run miles in the dark  just trying to get home
e|-----------------------------------------------4--------0--------0---------|
B|--------4---------5---------5---------2---0--0-----0--0-----0--0-2---0--0-2|
F|--4--3h4----4--3h4----4--3h4----4--3h4-------------------------------------|
D|---------------------------------------------------------------------------|
A|--4---------4---------4---------4---------2--------2--------2--------2-----|
D|4---4-----4---4-----2---2-----2---2-----2---2-2--2---2-2--2---2-2--2---2-2-|

 Outro:
Now I'm wide as the ocean Now I bleed roses And you are just a mark on the
                                              map of my past  And I am a road
e|------------------2----2--2-----------------------7----7--7----------------|
B|--4----4--4----2---------------2--2----2--2--------------------2--4----4--4|
F|-----3-------3-------3-------3----3--3----3--3-------3-------3-------3-----|
D|--2---2---2---2---2---2---2---2-2---2-2-2---2-2---2---2---2---2---2---2---2|
A|2---2---2---2---4---4---4---4-------------------2---2---2---2---2---2---2--|
D|---------------------------------------------------------------------------|
 I wind along alone  All day until the coast
e|-------2----2--2--------------------7--7----7--7----7--7----7--7----4--4---|
B|----2---------------2--2----2--2-------------------------------------------|
F|--3-------3-------3----3--3----3--3-------3-------3-------3-------3-------3|
D|---2---2---2---2---2-2---2-2-2---2-2---2---2---2---2---2---2---2---2---2---|
A|-2---4---4---4---4-------------------2---2---2---2---2---2---2---2---2---2-|
D|---------------------------------------------------------------------------|

e|-4--4----7--7----7--7-----------------------------|
B|-------------------------4--4----4--4----2--2----2|
F|-------3-------3-------3-------3-------3-------3--|
D|2---2---2---2---2---2---2---2---2---2---2---2---2-|
A|--2---2---2---2---2---2---2---2---2---2---4---4---|
D|--------------------------------------------------|
Добавлено: 12.04.2012
Другие материалы по этой песне:
  • Аккорды и текст

Страница создана 12.04.2012
http://primanota.ru/gregory-and-the-hawk/season-poem-chords.htm
Привет, Гость.
Предлагаем пройти революционный курс по гитаре.
Подарок от PrimaNota.Ru, забирай!