PrimaNota.ru - самый крупный в мире бесплатный архив песенных текстов, аккордов, табулатур и нот


Gregory And The Hawk - Neither Freer - текст песни, таба, видео

Регистрация Запомнить меня
Войти через:  Facebook Google Twitter Vk Yandex Mail.ru

Gregory And The Hawk - Neither Freer - текст песни, таба, видео

Печатать
Просмотров: 125
-------------------------------------------------------------------------------
                             Neither Freer - Gregory and the Hawk
-------------------------------------------------------------------------------
This is the album version of the song, which is substantially 
longer than the live version. If you want me to tab the live 
version as well, just ask. Please rate/comment, thanks ^_^.

Tabbed by:exterious
Email:exterious@gmail.com

Tuning:[D] A D [F#] B e


Intro:
 e|---------------------------------------------------------------|
 B|---------------------------------------------------------------|
F#|------0-------0-------0-------0-------0-------0-------0-------0|
 D|--2-------2-------2-------2-------2-------2-------2-------2----|
 A|----2-------2-------2-------2-------0-------0-------0-------0--|
 D|0-------0-------0-------0-------0-------0-------0-------0------|

 e|---------------------------------------------------------------|
 B|---------------------------------------------------------------|
F#|------5-------5-------5-------5-------3-------3-------3-------3|
 D|--4-------4-------4-------4-------4-------4-------4-------4----|
 A|----5-------5-------5-------5-------5-------5-------5-------5--|
 D|2-------2-------2-------2-------0-------0-------0-------0------|

Verse:
   Baby                       come        save   me       I'm goin'
 e|---------------------------------------------------------------|
 B|---------------------------------------------------------------|
F#|------0-------0-------0-------0-------0-------0-------0-------0|
 D|--2-------2-------2-------2-------2-------2-------2-------2----|
 A|----2-------2-------2-------2-------0-------0-------0-------0--|
 D|0-------0-------0-------0-------0-------0-------0-------0------|
   crazy                   without   you
 e|---------------------------------------------------------------|
 B|---------------------------------------------------------------|
F#|------5-------5-------5-------5-------3-------3-------3-------3|
 D|--4-------4-------4-------4-------4-------4-------4-------4----|
 A|----5-------5-------5-------5-------5-------5-------5-------5--|
 D|2-------2-------2-------2-------0-------0-------0-------0------|

   Steal me              away                                  These
 e|---------------------------------------------------------------|
 B|---------------------------------------------------------------|
F#|------0-------0-------0-------0-------1-------1-------1-------1|
 D|--2-------2-------2-------2-------0-------0-------0-------0----|
 A|----2-------2-------2-------2-------2-------2-------2-------2--|
 D|0-------0-------0-------0-------0-------0-------0-------0------|
  nights  just    ain't         the same                And you can
 e|---------------------------------------------------------------|
 B|---------------------------------------------------------------|
F#|------5-------5-------5-------5-------3-------3-------3-------3|
 D|--4-------4-------4-------4-------4-------4-------4-------4----|
 A|----5-------5-------5-------5-------5-------5-------5-------5--|
 D|2-------2-------2-------2-------0-------0-------0-------0------|
  watch me     wisely                                      But I'll
 e|---------------------------------------------------------------|
 B|---------------------------------------------------------------|
F#|------5-------5-------5-------5-------3-------3-------3-------3|
 D|--4-------4-------4-------4-------4-------4-------4-------4----|
 A|----5-------5-------5-------5-------5-------5-------5-------5--|
 D|5-------4-------2-------2-------0-------0-------0-------0------|
  turn                   on  a  dime                        You can
 e|---------------------------------------------------------------|
 B|---------------------------------------------------------------|
F#|------5-------5-------5-------5-------3-------3-------3-------3|
 D|--4-------4-------4-------4-------4-------4-------4-------4----|
 A|----5-------5-------5-------5-------5-------5-------5-------5--|
 D|5-------4-------2-------2-------0-------0-------0-------0------|
  try            and          surprise   me                But I've
 e|---------------------------------------------------------------|
 B|---------------------------------------------------------------|
F#|------5-------5-------5-------5-------3-------3-------3-------3|
 D|--4-------4-------4-------4-------4-------4-------4-------4----|
 A|----5-------5-------5-------5-------5-------5-------5-------5--|
 D|5-------4-------2-------2-------0-------0-------0-------0------|
  made   up    my mind       and you've known the whole time    I
 e|---------------------------------------------------------------|
 B|---------------------------------------------------------------|
F#|------5-------5-------5-------5-------5-------5-------5-------5|
 D|--4-------4-------4-------4-------4-------4-------4-------4----|
 A|----5-------5-------5-------5-------5-------5-------5-------5--|
 D|5-------4-------2-------2-------5-------4-------2-------2------|
  want   you  beside     me
 e|---------------------------------------------------------------|
 B|---------------------------------------------------------------|
F#|------5-------5-------5-------5-------3-------3-------3-------3|
 D|--4-------4-------4-------4-------4-------4-------4-------4----|
 A|----5-------5-------5-------5-------5-------5-------5-------5--|
 D|5-------4-------2-------2-------0-------0-------0-------0------|
Bridge:
 e|----------------------5-------0-------2-------0----------------|
 B|------5-------3---------------------------------------3-------0|
F#|--3-------3-------0-------0-------0-------0-------0-------0----|
 D|----4-------4-------4-------4-------0-------0-------0-------0--|
 A|--------------------------------2-------2-------2-------2------|
 D|0-------0-------0-------0--------------------------------------|

 e|------5-------0-----------------------2-------0----------------|
 B|----------------------3-------0-----------------------3-------0|
F#|--3-------3-------3-------0-------0-------0-------0-------0----|
 D|----4-------4-------4-------4-------0-------0-------0-------0--|
 A|--------------------------------2-------2-------2-------2------|
 D|0-------0-------0-------0--------------------------------------|
   ooh      ooh      ooh  ooh
 e|------5-------0-----------------------3-------2---------------0|
 B|----------------------0-------0-----------------------3---3----|
F#|--3-------3-------3-------3-------0-------0-------0---------0--|
 D|----4-------4-------4-------4-------0-------0-------0----------|
 A|--------------------------------2-------2-------2-------2------|
 D|0-------0-------0-------0--------------------------------------|
   ooh      ooh      ooh  ooh                            Or we can
 e|------5-------0-----------------------2-------0----------------|
 B|----------------------3-------0-----------------------3-------0|
F#|--3-------3-------3-------0-------0-------0-------0-------0----|
 D|----4-------4-------4-------4-------0-------0-------0-------0--|
 A|--------------------------------2-------2-------2-------2------|
 D|0-------0-------0-------0--------------------------------------|
   weight  our    lines         here           (Chorus:)     Let it
 e|---------------------------------------------------------------|
 B|---------------------------------------------------------------|
F#|------5-------5-------5-------5-------3-------3-------3-------3|
 D|--4-------4-------4-------4-------4-------4-------4-------4----|
 A|----5-------5-------5-------5-------5-------5-------5-------5--|
 D|5-------4-------2-------2-------0-------0-------0-------0------|
  drown     us      drag  us  down                   
 e|---------------------------------------------------------------|
 B|---------------------------------------------------------------|
F#|------5-------5-------5-------5-------3-------3-------3-------3|
 D|--4-------4-------4-------4-------4-------4-------4-------4----|
 A|----5-------5-------5-------5-------5-------5-------5-------5--|
 D|5-------4-------2-------2-------0-------0-------0-------0------|
  Tangled                 in     fear                      That it
 e|---------------------------------------------------------------|
 B|---------------------------------------------------------------|
F#|------5-------5-------5-------5-------3-------3-------3-------3|
 D|--4-------4-------4-------4-------4-------4-------4-------4----|
 A|----5-------5-------5-------5-------5-------5-------5-------5--|
 D|5-------4-------2-------2-------0-------0-------0-------0------|
  won't   come   around         That we've lost what we've found  
 e|---------------------------------------------------------------|
 B|---------------------------------------------------------------|
F#|------5-------5-------5-------5-------5-------5-------5-------5|
 D|--4-------4-------4-------4-------4-------4-------4-------4----|
 A|----5-------5-------5-------5-------5-------5-------5-------5--|
 D|5-------4-------2-------2-------5-------4-------2-------2------|
  Neither of     us      freer
 e|---------------------------------------------------------------|
 B|---------------------------------------------------------------|
F#|------5-------5-------5-------5-------3-------3-------3-------3|
 D|--4-------4-------4-------4-------4-------4-------4-------4----|
 A|----5-------5-------5-------5-------5-------5-------5-------5--|
 D|5-------4-------2-------2-------0-------0-------0-------0------|
Bridge 2:
 e|------5p0-----5p0---------------------2-----------------------0|
 B|----------------------3-------0---------------3-------3---3----|
F#|--3-------3-------3-------0-------0-------0-------0------------|
 D|----4-------4-------4-------4-------0-------0-------0-------0--|
 A|--------------------------------2-------2-------2-------2------|
 D|0-------0-------0-------0--------------------------------------|

 e|------5p0-----5p0---------------------3p2----------------------|
 B|----------------------3-------0---------------3p2--------------|
F#|--3-------3-------3-------0-------0-------0-----------3-------0|
 D|----4-------4-------4-------4-------0-------0-----0-------0----|
 A|--------------------------------2-------2-----------2-------2--|
 D|0-------0-------0-------0-----------------------0-------0------|

 e|---------------------------------------------------------------|
 B|---------------------------------------------------------------|
F#|------3-------0-------1-------0-------3-------7-------0-5------|
 D|--0-------0-------0-------0-------0-------0-------0-------0----|
 A|----2-------2-------0-------0-------2-------0-------0-------0--|
 D|2-------2-------4-------4-------0-------0-------0-------------0|
                                        (Chorus:)            Let it
 e|---------------------------------------------------------------|
 B|---------------------------------------------------------------|
F#|------3-------0-------1-------0-------0---3-------3-------3----|
 D|--0-------0-------0-------0-------0-----0-----4-------4--------|
 A|----2-------2-------0-------0-------2-----------5-------5------|
 D|2-------2-------4-------4-------2-----------0-------0----------|
  drown   us      drag   us    down
 e|---------------------------------------------------------------|
 B|---------------------------------------------------------------|
F#|------5-------5-------5-------5-------3-------3-------3-------3|
 D|--4-------4-------4-------4-------4-------4-------4-------4----|
 A|----5-------5-------5-------5-------5-------5-------5-------5--|
 D|5-------4-------2-------2-------0-------0-------0-------0------|
  Tangled                 in     fear                      That it
 e|---------------------------------------------------------------|
 B|---------------------------------------------------------------|
F#|------5-------5-------5-------5-------3-------3-------3-------3|
 D|--4-------4-------4-------4-------4-------4-------4-------4----|
 A|----5-------5-------5-------5-------5-------5-------5-------5--|
 D|5-------4-------2-------2-------0-------0-------0-------0------|
  won't   come   around         That we've lost what we've found  
 e|---------------------------------------------------------------|
 B|---------------------------------------------------------------|
F#|------5-------5-------5-------5-------5-------5-------5-------5|
 D|--4-------4-------4-------4-------4-------4-------4-------4----|
 A|----5-------5-------5-------5-------5-------5-------5-------5--|
 D|5-------4-------2-------2-------5-------4-------2-------2------|
  Neither of     us      freer
 e|---------------------------------------------------------------|
 B|---------------------------------------------------------------|
F#|------5-------5-------5-------5-------3-------3-------3-------3|
 D|--4-------4-------4-------4-------4-------4-------4-------4----|
 A|----5-------5-------5-------5-------5-------5-------5-------5--|
 D|5-------4-------2-------2-------0-------0-------0-------0------|
  Outro:
 e|------5p0-----5p0---------------------2-----------------------0|
 B|----------------------3-------0---------------3-------3---3----|
F#|--3-------3-------3-------0-------0-------0-------0------------|
 D|----4-------4-------4-------4-------0-------0-------0-------0--|
 A|--------------------------------2-------2-------2-------2------|
 D|0-------0-------0-------0--------------------------------------|

 e|------5p0-----5p0---------------------3p2----------------------|
 B|----------------------3-------0---------------3p2--------------|
F#|--3-------3-------3-------0-------0-------0-----------3-------0|
 D|----4-------4-------4-------4-------0-------0-----0-------0----|
 A|--------------------------------2-------2-----------2-------2--|
 D|0-------0-------0-------0-----------------------0-------0------|

 e|---------------------------------------------------------------|
 B|---------------------------------------------------------------|
F#|------3-------0-------1-------0-------3-------7-------0-5------|
 D|--0-------0-------0-------0-------0-------0-------0-------0----|
 A|----2-------2-------0-------0-------2-------0-------0-------0--|
 D|2-------2-------4-------4-------0-------0-------0-------------0|

 e|---------------------------------------------------------------|
 B|---------------------------------------------------------------|
F#|------3-------0-------1-------0-------3-------10-------8-------|
 D|--0-------0-------0-------0-------0-------0--------0-----------|
 A|----2-------2-------0-------0-------2-------0--------0---------|
 D|2-------2-------4-------4-------2-------0--------0-------------|

 e|---------------------------------------------------------------|
 B|---------------------------------------------------------------|
F#|------1-------3-------7-------0-5-------------3-------10-------|
 D|--0-------0-------0-------0-------0-------0-------0------------|
 A|----0-------0-------0-------0-------0-------2-------0----------|
 D|0-------0-------0-------0-------------0-2-------0--------------|

 e|---------------------------------------------------------------|
 B|---------------------------------------------------------------|
F#|------10-------12-------7-------0-5-------------3-------0------|
 D|--0--------0--------0-------0-------0-------0-------0----------|
 A|----0--------0--------0-------0-------0-------2-------2--------|
 D|0--------0--------0-------0-------------0-2-------2------------|

 e|---------------------------------------------------------------|
 B|---------------------------------------------------------------|
F#|------1--------0-------3-------10-------8-------1-------3------|
 D|--0--------0-------0-------0--------0-------0-------0----------|
 A|----0--------0-------2-------0--------0-------0-------0--------|
 D|4--------4-------2-------0--------0-------0-------0------------|

 e|---------------------------------------------------------------|
 B|---------------------------------------------------------------|
F#|------7--------0-5-------------3-------10--------10--------12--|
 D|--0--------0-------0-------0-------0--------0----------0-------|
 A|----0--------0-------0-------2-------0---------0---------0-----|
 D|0--------0-------------0-2-------0--------0----------0---------|

 e|---------------------0-----------------------------------------|
 B|---------------------3-----------------------------------------|
F#|---10----8----0-1----0-----------------------------------------|
 D|------------------0--4-----------------------------------------|
 A|---------------------5-----------------------------------------|
 D|0-----0----0---------0-----------------------------------------|



| /  slide up
| \  slide down
| h  hammer-on
| p  pull-off
| ~  vibrato
| +  harmonic
| x  Mute note
===============================================================================
Добавлено: 26.07.2012
Другие материалы по этой песне:
  • Аккорды и текст

Страница создана 26.07.2012
http://primanota.ru/gregory-and-the-hawk/neither-freer-chords.htm
Привет, Гость.
Предлагаем пройти революционный курс по гитаре.
Подарок от PrimaNota.Ru, забирай!