PrimaNota.ru - самый крупный в мире бесплатный архив песенных текстов, аккордов, табулатур и нот


Gregory And The Hawk - In Fact - текст песни, таба, видео

Регистрация Запомнить меня
Войти через:  Facebook Google Twitter Vk Yandex Mail.ru

Gregory And The Hawk - In Fact - текст песни, таба, видео

Печатать
Просмотров: 304
Уроки эстрадного вокала в Санкт-Петербурге
IN FACT

CAPO on 3RD

e|--------------------------------------------------------------|
B|--------------------------------------------------------------|
G|------------------0-----------------------------2-------------|
D|---------2-----------2--------------2-------------2-----------|
A|-------------3----------3---------------0-------------0-------|
E|------3--------------------------2----------------------------|

--

e|--------------------------------------------------------------|
B|--------------------------------------------------------------|
G|------------------2-----------------------------0-------------|
D|---------2-----------2--------------2-------------2-----------|
A|-------------2----------2---------------2------------2--------|
E|------0--------------------------0----------------------------|

That's the verse, and strum all 3 chords for the bridge.


Enjoy!

comments?
thewhalenguy@hotmail.com
Добавлено: 02.06.2012
Другие материалы по этой песне:
  • Аккорды и текст

Страница создана 16.03.2012
http://primanota.ru/gregory-and-the-hawk/in-fact-chords.htm
Привет, Гость.
Предлагаем пройти революционный курс по гитаре.
Подарок от PrimaNota.Ru, забирай!