PrimaNota.ru - самый крупный в мире бесплатный архив песенных текстов, аккордов, табулатур и нот


Gregory And The Hawk - Bad Habit - таба, видео

Регистрация Запомнить меня
Войти через:  Facebook Google Twitter Vk Yandex Mail.ru

Gregory And The Hawk - Bad Habit - таба, видео

Печатать
Просмотров: 98
This is the album version. Check out her Myspace for the song.
Tuning is EADG[A]e
relative to capo on 2nd fret
please rate or comment! ^_^

email: exterious@gmail.com

intro & 1st verse
I think my bones are breaking...
e----------------------------------------------------|
a-5----5----5-----5----5----0----0----0-----0----0---|
G-0----0----0-----0----0----5----5----5-----5----5---|
D----0------0-------0----0-----5------5-------5----5-|
A-5------5------5------5----0------0------0------0---|
E----------------------------------------------------|

e----------------------------------------------------|
a-2----2----2-----2----2----0----0----0-----0----0---|
G-2----2----2-----2----2----0----0----0-----0----0---|
D----0------0-------0----0-----0------0h2---0h2-----0|
A-3------3------3------3----1------1------1------1---|
E----------------------------------------------------|

They don't help.
e-----------------------------------------------------|
a-0--0---0---0---0----0--0-----0---0---0---0---0---0--|
G-0--0---0h2-0---2p0--0--0-----0h2-0---2p0-0---0---0--|
D----------------------------------------------0h2-2p0|
A-2---2--2----2--2--2---2--2---2----2--2--2--2----2---|
E-----------------------------------------------------|

e-----------------------------------------------------|
a---0---0-----0---0-----0---0-------------------------|
G---0---0-----0---0-----0---0-------------------------|
D---0h2-2p0---0h2-2p0---0h2-2p0-----------------------|
A-2----2----2----2----2----2--------------------------|
E-----------------------------------------------------|

The nights are crazy...
e-----------------------------------------------------|
a-5----5----5-----5----5----0----0----0-----0----0----|
G-0----0----0-----0----0----5----5----5-----5----5----|
D----0------0-------0----0-----5------5-------5----5--|
A-5------5------5------5----0------0------0------0----|
E-----------------------------------------------------|

e-----------------------------------------------------|
a-2----2----2-----2----2----0----0----0-----0----0----|
G-2----2----2-----2----2----0----0----0-----0----0----|
D----0------0-------0----0-----0------0h2---0h2-----0-|
A-3------3------3------3----1------1------1------1----|
E-----------------------------------------------------|

The heart wants us to fall in love...
e-----------------------------------------------------|
a-0--0---0---0---0----0--0-----0---0---0---0---0---0--|
G-0--0---0h2-0---2p0--0--0-----0h2-0---2p0-0---0---0--|
D----------------------------------------------0h2-2p0|
A-2---2--2----2--2--2---2--2---2----2--2--2--2----2---|
E-----------------------------------------------------|

e-----------------------------------------------------|
a---0---0-----0---0-----0---0-------------------------|
G---0---0-----0---0-----0---0-------------------------|
D---0h2-2p0---0h2-2p0---0h2-2p0-----------------------|
A-2----2----2----2----2----2--------------------------|
E-----------------------------------------------------|

Love once got me in the gut...
e-----------------------------------------------------|
a--------0----0--0--0---------------------------------|
G-0--0---0h5--5--5--0----0---0-----0---0--------------|
D-0--0-------------------4h5-5p4---4h5-5p4------------|
A-5---5------5-5-------5----5----5----5---------------|
E-----------------------------------------------------|

e-------------0-3--------------3---------------0-3----| this bar has to be
a----------3----------------2----3-0--------3---------| played at the right
G-------0---------------0----------------0------------| tempo or it will
D---0h2--2----------0h2--2----2-2----0h2--2-----------| sound off
A-3----3----3-----0----0-----------3----3----3--------|
E-----------------------------------------------------|

e--------------3--------------------------------------|
a-----------2-----0-----------------------------------|
G-------0---------------------------------------------|
D---0h2--2----2-2-------------------------------------|
A-0----0----------------------------------------------|
E-----------------------------------------------------|

e-1-----0---0--0-----5---5---3---3---3-------------5--5/|
a-0--0--1---1--1-----0---0---0---0---0----0---0--0----3/|
G---3-----0------0-----0-----0-----0---0--5---5---5-----|
D-3-----3---3--3-----5-----5---5-----5----5-5---3---3-3/|
A-------------------------------------------------------|
E-------------------------------------------------------|

e-/8---8---7---7---7---10---10---10/--/12---12----12---|
a-/7---7---7---7---7---0-----0----0----0----0-----0----|
G----0-----0-----0---0----0--------------------------0-|
D-/7-----7---7-----7---7-------7--7/--/10-10--10--10---|
A------------------------------------------------------|
E------------------------------------------------------|

e-0---0----0-----0---0----0----------------------------|
a-5---5----3-----5---5----3----------------------------|
G---0--------------0-----------------------------------|
D-7-----7--5-----7-----7--5----------------------------|
A------------------------------------------------------|
E-------------0--------------0-------------------------|

And the heart once says...
e------------------------------------------------------|
a-0--0---0---0---0----0--0-----0---0---0---------------|
G-0--0---0h2-0---2p0--0--0-----0h2-0---2p0----0---0----|
D---------------------------------------------4h5-5p4--|
A-2---2--2----2--2--2---2--2---2----2--2----5----5-----|
E------------------------------------------------------|

e------------------------------------------------------|
a------------------------------------------------------|
G---0---0-----0---0-----0---0-----0---0-----0---0------|
D---4h5-5p4---0h2-2p0---0h2-2p0---4h5-5p4---4h5-5p4----|
A-5----5----3----3----3----3----5----5----5----5-------|
E------------------------------------------------------|

e------------------------------------------------------|
a------------------------------------------------------|
G---0---0-----0---0------------------------------------|
D---0h2-2p0---0h2-2p0----------------------------------|
A-3----3----3----3-------------------------------------|
E------------------------------------------------------|

[the last] in love...
e------------------------------------------------------|
a-0--0---0---0---0----0-0-0----0-----0---0-------------|
G-0--0---0h2-0---2p0--0-0-0----0-----0---0-------------|
D-------------------------0h2--2p0---0h2-2p0-----------|
A-2---2--2----2--2--2---2----2-----2----2--------------|
E------------------------------------------------------|

e-------------0-3--------------------------------------|
a----------3------0h2----------------------------------|
G-------0-------------------0--------------------------|
D---0h2--2-----------0h2----2--------------------------|
A-3----3----3-----------0h2-2--------------------------|
E---------------------------0--------------------------|
Добавлено: 25.02.2012
Другие материалы по этой песне:
  • Аккорды и текст

Страница создана 25.02.2012
http://primanota.ru/gregory-and-the-hawk/bad-habit-chords.htm
Привет, Гость.
Предлагаем пройти революционный курс по гитаре.
Подарок от PrimaNota.Ru, забирай!