PrimaNota.ru - самый крупный в мире бесплатный архив песенных текстов, аккордов, табулатур и нот


Gregory Alan Isakov - Black And Blue - аккорды и текст, видео

Регистрация Запомнить меня
Войти через:  Facebook Google Twitter Vk Yandex Mail.ru

Gregory Alan Isakov - Black And Blue - аккорды и текст, видео

Печатать
Просмотров: 87
Black And Blue
Gregory Alan Isakov
---------------------------------------------------------------------------
                     Black and Blue - Gregory Alan Isakov 
---------------------------------------------------------------------------

Tuning: Standard

Capo: 2nd fret

All chords and tabs are relative to capo, the *G and G6sus are the same 
thing, I just found it tedious to write the full chord name with the lyrics

Tabs for the solos should only be used as a rough guide; it sounds like you'd 
need a guitar slide to get the right sound, in which case the bends would turn 
into slower slides

Lastly in the intro and bridges he does something when transitioning from 
G6sus to Am, to get the same sound just slide the notes on the B and D 
strings up 2 frets when playing the G6sus chord, i couldn't be bothered 
tabbing it

Hope this helps anyone stuck figuring this out, enjoy playing!

Chords:*

*Brackets indicate optional notes

         (*G)
    G   G6sus   F     C     Am   D   Dsus  B7
e|-------------(1)----0-----0----2-----3------|
B|--0-----1-----1-----1-----1----3-----3----0-|
G|--0-----0-----2-----0-----2----2-----2----2-|
D|--0-----2-----3-----2-----2----0-----0----1-|
A|-(2)----------3-----3-----0---------------2-|
E|--3-----3-----1-----3-----------------------|

Intro:
G  G6sus  G  G6sus  F  C  F  C  G  G6sus  G  G6sus

Am  C  G  G6sus  G  G6sus  Am  C  G  G6sus G

Verse:
G               *G-G  *G     
I see boxes...
F          C
Fills up a room,
F                      C              G          *G-G
All the things i never told you still glooming.
      G          *G-G          *G
And i try though, i try though.
F             C            G   *G   G
Talking never seems to do it.

Am                           C                       G     *G  G
I miss the taste of you, red hearts and the dust of june
  Am                   C (hold)
Oh i miss the taste of you...

Solo:

Chords: |G  G6sus|(x4)
Tab:
e|-------------------------------------------------------|
B|----------------3--3--3--------------3-5b(6)---3-------|
G|------0--2/4--------------4s\2---0---------------------|
D|-0h2---------------------------------------------------|
A|-------------------------------------------------------|
E|-------------------------------------------------------|

Verse:
    G          *G-G   *G  
The night now,    
       F           C
It's as dark as the crows,
     F              C           G      *G     G
That call me in the discernment above...
           Am               C
Still they won't let me be
Am                  C
    Two hearts gone black and blue
        Am              C            G    *G    G
Oh they won't let me be...    closer to you


Solo:

Chords: G  G6sus  G  G6sus  F  C  F  C  G  G6sus  G  G6sus

Am  C  G  G6sus  G  G6sus  Am  C  G  G6sus G G6sus G G6sus G
Tab:    
e|-------------------------------------------3-------|
B|------------3----5--3--------------3-5b(6)----5----|
G|------0--/4------------4\2---0---------------------|
D|-0h2-----------------------------------------------|
A|---------------------------------------------------|
E|---------------------------------------------------|

e|---------3-----------------------------------------|
B|--5b(6)-----5----5\3----3--------------------------|
G|----------------------4------4---4\2---0-----0-----|
D|------------------------------------------2--------|
A|---------------------------------------------------|
E|---------------------------------------------------|

Chorus/Outro:
Am                       C                           G     *G  G
I miss the taste of you, red hearts and the dust of june
    Am                       C                                
Oh, I miss the taste of you, red hearts, gone black and blue, the
 D             Dsus      G       B7        C
Only thing you ever do is sigh and cry and cry
Am       C         G     
Hmm    hmm      cry


Notes: 
  -   =  hammer on/off (for chords)
5b(6) = bend 5 so it sounds like 6
  \   = slide down
  /   = slide up
Добавлено: 03.06.2016
Другие материалы по этой песне:
  • Аккорды и текст

Страница создана 03.06.2016
http://primanota.ru/gregory-alan-isakov/black-and-blue-chords.htm
Привет, Гость.
Предлагаем пройти революционный курс по гитаре.
Подарок от PrimaNota.Ru, забирай!