PrimaNota.ru - самый крупный в мире бесплатный архив песенных текстов, аккордов, табулатур и нот


Gregory Alan Isakov - August Clown - таба, видео

Регистрация Запомнить меня
Войти через:  Facebook Google Twitter Vk Yandex Mail.ru

Gregory Alan Isakov - August Clown - таба, видео

Печатать
Просмотров: 116
-------------------------------------------------------------------------------
                             August Clown by Gregory Alan Isakov
-------------------------------------------------------------------------------

Tabbed by: scdavis01

Tuning: Standard

Strum the parts marked as chords from top to bottom quickly with the thumb to get the
same effect as on the recording. Isakov is obviously less strict with the playing and
plays more sloppily, and beautifull, for that matter, than this tab suggests, so listen 
to the recording if you are nitpicky. The verses and chorus are all very similar in chord
structure, so listen to the song for any minor changes from the first verse to the 
others. Thanks.


Intro Progression:
            Am  Em           F       C              F       C             G
e|------------------------------------------------------------------------3--|
B|--1p0h1----1p0-------------1----------------------1---------------------0--|
G|-----------2---0----0------0h2--0--0---------0----0h2--0--0-------------0--|
D|-----------2---2------2----3-------0h2---0h2------3-------0h2---0h2-0---0--|
A|-----------0---2-----------3-------3--------------3-------3---3---------x--|
E|---------------0--------------------------------------------------------3--|


            Am  Em           F       C              F       C    Gsus4   Am
e|-------------------------------------------------------------------------0-|
B|--1p0h1----1p0-------------1----------------------1---------------1--1---1-|
G|-----------2---0----0------0h2--0--0----------0---0h2--0--0-------0------2-|
D|-----------2---2------2----3-------0h2----0h2-----3-------0h2--0--0------2-|
A|-----------0---2-----------3-------3--------------3-------3-------x------0-|
E|---------------0--------------------------------------------------3------0-|


Verse:  F                     C          Am       Em            F
e|---------------------------------------------------------------------------|
B|------1------------------------1----------1--------0-------------1---------|
G|------0h2----------------------0----------2--------0-------------0h2-------|
D|------3------------------------2----------2--------2-------------3---------|
A|------3------------------------3----------0--------2-------------3---------|
E|---------------------------------------------------0-----------------------|

           August clowns a saint,       and I just figured out why

          Am        Em       F           C         Am       Em    G
e|-------0----------------------------------------0--------------3-----------|
B|-------1---------0--------1-----------1---------1--------0-----0-----------|
G|-------2---------0--------0h2---------0---------2--------0-----0-----------|
D|-------2---------2--------3-----------2---------2--------2-----0-----------|
A|-------0---------2--------3-----------3---------0--------2-----2-----------|
E|-----------------0---------------------------------------0-----3-----------|

       Ive been walking through the sand, with just you on my mind

          Am        Em       F           C         Am       Em    F
e|-----0--------------------------------------------0------------------------|
B|-----1----------0-----------1--------1------------1------0--------1--------|
G|-----2----------0-----------0h2------0------------2------0--------0h2------|
D|-----2----------2-----------3--------2------------2------2--------3--------|
A|-----0----------2-----------3--------3------------0------2--------3--------|
E|----------------0----------------------------------------0-----------------|

  and all thats left of the summer sky     is the moment youre flying by

             Am       Em      F       C    Am      Em       F      C
e|----------0-----------------------------0---------------------------------|
B|----------1--------0-------1-------1----1-------0--------1------1---------|
G|----------2--------0-------0h2-----0----2-------0--------0h2----0---------|
D|----------2--------2-------3-------2----2-------2--------3------2---------|
A|----------0--------2-------3-------3----0-------2--------3------3---------|
E|-------------------0----------------------------0-------------------------|
  Theres things a boy can never tell,    know you by your hands too well (x2)


Intro Progressioin

Chorus:
Damn you from this wretched boy
youve stolen more than sleep and joy
and Im goin back where I belong
where the time is right and straight and slow
going back where I belong
just to watch them thistles grow

Intro Progression

Verse:
August skins left golden brown
and Ive seen too much of this lonely town
too much thinking walking round
too much talking August clown (x2)

Chorus:
Damn you from this wretched boy
youve stolen more than sleep and joy
and Im goin back where I belong
where the time is right and straight and slow
going back where I belong
just to watch them thistles grow (x2)
mmm mmm mmmm mmmm mmmmmmmm

Outro: Intro Progression

Beautiful song. Enjoy.
Добавлено: 16.08.2013
Другие материалы по этой песне:
  • Аккорды и текст

Страница создана 16.08.2013
http://primanota.ru/gregory-alan-isakov/august-clown-chords.htm
Привет, Гость.
Предлагаем пройти революционный курс по гитаре.
Подарок от PrimaNota.Ru, забирай!