PrimaNota.ru - самый крупный в мире бесплатный архив песенных текстов, аккордов, табулатур и нот


Gregorian Chant - Kyrie Chant - таба, видео

Регистрация Запомнить меня
Войти через:  Facebook Google Twitter Vk Yandex Mail.ru

Gregorian Chant - Kyrie Chant - таба, видео

Печатать
Просмотров: 128
KYRIE

Mass XI                                                     10th Century

Tablature by Rick Kephart  http://www.netaxs.com/~rmk

A Gregorian Chant. Normal guitar tuning. Chant has no time signature.
"." after a note means hold. "/" means hammer-on. "\" means pull-off.
Keep the notes (except for the dotted notes) evenly spaced.


e|-----------------|-----------------------------------|
b|-----------------------------------------------------|
g|--2/3--2\0--2.--------0/2--3\2\0---------------------|
D|---------------0.--3--------------3\2\0-----0--0.----|
A|-----------------------------------------3-----------|
E|-----------------------------------------------------|

   Ky----ri---e      e---------------------le-i-son     [3x]


e|--------------------------|-----------------------------------|
b|-------3.--1/3--1---------------------------------------------|
g|--2\0--------------2\0--2.-----0/2--3\2\0---------------------|
D|----------------------------3--------------3\2\0-----0--0.----|
A|--------------------------------------------------3-----------|
E|--------------------------------------------------------------|

   Chris-te                   e---------------------le-i-son    [3x]


e|-----------------|-----------------------------------|
b|-----------------------------------------------------|
g|--2/3--2\0--2.--------0/2--3\2\0---------------------|
D|---------------0.--3--------------3\2\0-----0--0.----|
A|-----------------------------------------3-----------|
E|-----------------------------------------------------|

   Ky----ri---e      e---------------------le-i-son    [2x]


e|-------------------------------------|-------------------------------------|
b|---------------------------------------------------------------------------|
g|------------------0.------------------------0/2--3\2\0---------------------|
D|--0/3\0-------0.------3/5\3-------0.-----3--------------3\2\0-----0--0.----|
A|---------3/5-----------------5\3-------------------------------3-----------|
E|---------------------------------------------------------------------------|

   Ky------ri---e                          e----------------------le-i-son


Kyrie eleison   {Lord, have mercy}
Christe eleison   {Christ, have mercy}
Kyrie eleison   {Lord, have mercy}
Добавлено: 28.07.2012
Другие материалы по этой песне:
  • Аккорды и текст

Страница создана 09.04.2012
http://primanota.ru/gregorian-chant/kyrie-chant-chords.htm
Привет, Гость.
Предлагаем пройти революционный курс по гитаре.
Подарок от PrimaNota.Ru, забирай!