PrimaNota.ru - самый крупный в мире бесплатный архив песенных текстов, аккордов, табулатур и нот


Gregor Meyle - Solang Ich Dran Glaube - аккорды и текст, видео

Регистрация Запомнить меня
Войти через:  Facebook Google Twitter Vk Yandex Mail.ru

Gregor Meyle - Solang Ich Dran Glaube - аккорды и текст, видео

Печатать
Просмотров: 40
Solang Ich Dran Glaube
Gregor Meyle
Solang ich dran glaube

Capo: +3

Intro (Verse):

  G            Am7/G       D/F#        G           C          Em7         Am7       D
------3------------3-----------------------3----------------------------------------------2-------
--0-----0------0h1---1-----3---3-------0-----0-----5-------5--3------3----3---------3---3---3-----
----------0------------0---2-2---2---2---------0-------------------0----------5s4---2-2-------2s0-
--0-0-------0--0h2-------2---------0---0-0-------0-5---5---5--4--4------------------0-------------
---------------------------------------------------3----------------------------------------------
--3------------3-----------2-----------3----------------------0-----------5-----------------------


  C           H7          Em    H7  A7          C9          G/H         D            G         Ich treibe...
-----------------------------------------------------------------------------------------3--------
--5-------5-5s7------7--7s8---8s7---2-----2-----3-------3---3-----------3------------0-----0------
----------------------------------------0---0---0---0-------0---0---0---2-2h4s2s0h2--0-------0----
--5---5---5-5s7---7-----7s9---9s7---2-2---------------------------------0--------------0-------0--
--3---------------------------------0-----------3-----------0h2-----------------------------------
--------------7-----------0----------------------------------------------------------3------------


    G      Am7/G         D/F#   G
Ich treibe hinaus, auf's off'ne Meer
     C           Em7
Noch Wind in den Segeln
        Am7      D
Nur das Herz ist schwer
     C              H7
Ich will noch nicht umkehren
     Em           H7  A7
oder kentern in rauer See
  C9            G/H          D               G      G  Am7/G  D  G
Solang ich dran glaube, kann ich nicht untergeh'n


     G                Am7/G   D/F#  G    
Mein Schiff war schon oft in großer Not
         C             Em7          Am7   D
Schwimmt sanft auf den Wellen, mein Segelboot
     C          H7
Die Götter sind gnädig,
     Em             H7  A7
Kann Land schon vor mir seh'n
  C9            G/H           D        G           G   C   G  
Solang ich dran glaube, kann ich nicht untergeh'n

         C9           Em7     D
Niemand sagt, es wäre einfach
         C       A7/C#   D9   D
Manchmal hilft's naiv zu sein
            H7                           Em        D   A7
Die größten Fehler machst du doppelt und dreifach
        C9                            D9    D
Und die schlimmsten siehst du zu spät ein.


G             Am7/G     D/F#     G
Sehnsucht ist Fluch und Segen zugleich.
    C          Em7          Am7     D
Nur selten beruhigt einen Zufriedenheit.
    C                H7              
Ich will noch nicht umkehren
     Em          H7   A7
oder kentern in rauer See
   C9           G/H          D              G     G   C   G
Solang ich dran glaube, kann ich nicht untergeh'n

         C9           Em7     D
Niemand sagt, es wäre einfach
         C       A7/C#   D9   D
Manchmal hilft's naiv zu sein
            H7                           Em        D   A7
Die größten Fehler machst du doppelt und dreifach
        C9                            D9    D
Und die schlimmsten siehst du zu spät ein.


 C9  G/H  Am7    D9   D
Ooh, ooh, yeeah, ooh
 C9  G/H   A7    D9   D
ooh, aah, yeeah, ooh


         C9           Em7     D
Niemand sagt, es wäre einfach
         C       A7/C#   D9   D
Manchmal hilft's naiv zu sein
            H7                           Em       D   A7
Die größten Fehler machst du doppelt und dreifach
        C9                            D9    D
Und die schlimmsten siehst du zum Glück ein.


    G      Am7/G         D/F#   G
Ich treibe hinaus, auf's off'ne Meer
     C            Em7     
Noch Wind in den Segeln
(fading out Chords)
und mein Herz im Meer.
Добавлено: 23.05.2016
Другие материалы по этой песне:
  • Аккорды и текст

Страница создана 23.05.2016
http://primanota.ru/gregor-meyle/solang-ich-dran-glaube-chords.htm
Привет, Гость.
Предлагаем пройти революционный курс по гитаре.
Подарок от PrimaNota.Ru, забирай!