PrimaNota.ru - самый крупный в мире бесплатный архив песенных текстов, аккордов, табулатур и нот


Greg Laswell - Sing Theresa Says - текст песни, таба, видео

Регистрация Запомнить меня
Войти через:  Facebook Google Twitter Vk Yandex Mail.ru

Greg Laswell - Sing Theresa Says - текст песни, таба, видео

Печатать
Просмотров: 279
                      SING THERESA SAYS - Greg Laswell
---------------------------------------------------------------------------
Tabbed by: Helena Khazozian
Email: khazdozianh@hartwick.edu

Tuning: Standard

Intro/Verse:
e|-------------------------------------------------------------------------|
B|--7-----7-----5-----5-----2-----2-----3-----3----------------------------|
G|-----7-----7-----6-----6-----2-----2-----4-----4-------------------------|
D|-------------------------------------------------------------------------|
A|-------------------------------------------------------------------------|
E|-------------------------------------------------------------------------|

Chorus:
e|-------------------------------------------------------------------------|
B|--------5--7--7--------------5--7--7--------------5--7--7--5--2----------|
G|-----7--------7--7--------7--------7--7--------7--------7--6--2----------|
D|--7-----------7--7--5--7-----------7--7--5--7-----------7--7--2----------|
A|-----------------5--5-----------------5--5-------------------------------|
E|--------------------3--------------------3-------------------------------|
(upstroke and palm mute down on the chords/power chords)

Outro:
e|-------------------------------------------------------------------------|
B|--7-----------5-----------2-----------3----------------------------------|
G|-----7-----7-----6-----6-----2-----2-----4-----4-------------------------|
D|--------7-----------7-----------2-----------5----------------------------|
A|-------------------------------------------------------------------------|
E|-------------------------------------------------------------------------|



| /  slide up
| \  slide down
| h  hammer-on
| p  pull-off
| ~  vibrato
| +  harmonic
| x  Mute note
============================================================================

http://www.greglaswell.com/
Добавлено: 08.03.2012
Другие материалы по этой песне:
  • Аккорды и текст

Страница создана 08.03.2012
http://primanota.ru/greg-laswell/sing-theresa-says-chords.htm
Привет, Гость.
Предлагаем пройти революционный курс по гитаре.
Подарок от PrimaNota.Ru, забирай!