PrimaNota.ru - самый крупный в мире бесплатный архив песенных текстов, аккордов, табулатур и нот


greg june - We Can Never Talk - аккорды и текст, видео

Регистрация Запомнить меня
Войти через:  Facebook Google Twitter Vk Yandex Mail.ru

greg june - We Can Never Talk - аккорды и текст, видео

Печатать
Просмотров: 38
Уроки эстрадного вокала в Санкт-Петербурге
We Can Never Talk
greg june
-------------------------------------------------------------------------------
                             WE CAN NEVER TALK - Greg June
-------------------------------------------------------------------------------
Tabbed by: Pepito
E-mail: pepito36@hotmail.fr

here is my transcription of this song  

Capo 2

Intro:

e|---------------------------------------------------------------------------|
B|---------------------------------------------------------------------------|
G|-----0-----0-------0-----0--------0------0------0------0-------------------|
D|-----5-----5-------7-----7--------9------9------9------9-------------------|
A|---------------------------------------------------------------------------|
E|--0-----0-----6/8-----8-----8/10-----10-----11-----11----------------------|

e|---------------------------------------------------------------------------|
B|---------------------------------------------------------------------------|
G|-----0-----0-------0-----0-----0-----0-----2-----2-------------------------|
D|-----5-----5-------7-----7-----0-----0-----0-----0-------------------------|
A|---------------------------------------------------------------------------|
E|--0-----0-----6/8-----8-----3-----3-----2-----2----------------------------|



Verse : 

Em        C        G         B7
Why do we fuss and fight for hours
Em        C        G          B7
Words are weapons, our love devours
Em        C         G      B7
Why do we lie, it's no use cheating
Em                C             Em      B7
Straight from the heart, that's how I'm feeling
Em         C        G          B7
What's the point of sleeping together when
Em         C             G       B7
There's no passion, it's gone forever
Em     C         G      B7
It's a shame, we get so violent
Em        C        G           B7         B7
I never thought we could be so different



C      C           G
I try, I try, Oh I try
          G  
Oh man we tried
   B7                B7                
We tried so hard but you know what...

              

             Em
We can never talk
  C      G      
I try so hard
B7           Em
We can never talk
         C            G
I try so hard but you know what...
B7           Em
We can never talk
  C      G
I try so hard
B7            Em           C     G
We can never, we can never talk
B7           Em
We can never talk
C           G                  B7
Each to his own, it's separate shower
Em    C       G     B7
Up to no good after hours
Em     C         G      B7
It's a shame, we get so violent
Em      C          G           B7       B7
I never thought we could be so different



C      C      G
I try, I try, Oh I try
          G
Oh man we tried
   B7                B7
We tried so hard but you know what...




             Em
We can never talk
  C     G
I try so hard
B7           Em
We can never talk
         C           G           
I try so hard but you know what...
B7           Em
We can never talk
  C      G
I try so hard
B7            Em
We can never, we can never talk
C               G
We can never talk
B7
We can never talk
...
We can never talk
I try so hard
We can never talk
I try so hard but you know what...
We can never talk
I try so hard
We can never, we can never talk
We can never talk
(x2)

             Em
We can never talk 


************************************
Добавлено: 28.04.2016
Другие материалы по этой песне:
  • Аккорды и текст

Страница создана 28.04.2016
http://primanota.ru/greg-june/we-can-never-talk-chords.htm
Привет, Гость.
Предлагаем пройти революционный курс по гитаре.
Подарок от PrimaNota.Ru, забирай!