PrimaNota.ru - самый крупный в мире бесплатный архив песенных текстов, аккордов, табулатур и нот


Greg Howe - Direct Injection - бас-таба, видео

Регистрация Запомнить меня
Войти через:  Facebook Google Twitter Vk Yandex Mail.ru

Greg Howe - Direct Injection - бас-таба, видео

Печатать
Просмотров: 142
As recorded by Greg Howe
                       (From the 1993 Album INTROSPECTION)

Music by Greg Howe
Arranged by J&J Transcriptions (September 2005)

Gtr I (E A D G) - 'Untitled'

   Moderately Q=120
  4/4
   Gtr I
   W          H..       S S   +E  E E H    S S
*|----------|---------------|------------------|
*|----------|---------------|------------------|
*|----------|---------------|------------------|
*|----------|-------------0-|-(0)-1-2--------0-|


  +E  E E  H    S S   +E  E E H    S S   +E  E E Q  S S E  S S
|-------------------|------------------|-----------------------|
|-------------------|------------------|-----------------------|
|-------------------|------------------|----------------7\-----|
|-(0)-1-2\--------0-|-(0)-1-2--------0-|-(0)-1-2----3s5------0-|


  +E  E E H    S S   +E  E E H    S S   +S  S E E E E E E S S
|------------------|------------------|-----------------------|
|------------------|------------------|-----------------------|
|------------------|------------------|-----------------------|
|-(0)-1-2--------0-|-(0)-1-2--------0-|-(0)-0-1-2-2-2-2-2-2-0-|


  S S S S E E E E E S S   +E  E E H    S S   +E  E E H    S S
|-----------------------|------------------|-------------------|
|-----------------------|------------------|-------------------|
|-----------------------|------------------|-------------------|
|-0-0-1-1-2-2-2-2-2-2-0-|-(0)-1-2--------0-|-(0)-1-2--------0--|


                  |3|                   |3|
  +S  +S  E E E E E S E S S   +S  S E E E S E E E S S   +E  E E H    S S
|---------------------------|-------------------------|------------------|
|---------------------------|-------------------------|------------------|
|---------------------------|-------------------------|------------------|
|-(0)-(0)-1-2-2-2-2-2-2-2-0-|-(0)-0-1-2-2-2-2-2-2-2-3-|-(3)-4-5--------3-|


  +E  E E H    S S   +E  S S E E E E E S S   +E  E E E E E E S S
|------------------|-----------------------|---------------------|
|------------------|-----------------------|---------------------|
|------------------|-----------------------|---------------------|
|-(3)-4-5--------3-|-(3)-4-4-5-5-5-5-5-5-3-|-(3)-4-5-5-5-5-5-5-0-|


  +E  E E H    S S   +E  E E H    S S   +S  S S S E E E E E S S
|------------------|------------------|--------------------------|
|------------------|------------------|--------------------------|
|------------------|------------------|--------------------------|
|-(0)-1-2--------0-|-(0)-1-2--------0-|-(0)-0-1-1-2-2-2-2-2-2-0--|


                            Q=130
  +S  S S S E E E E E E     S  S  S  S S  S  S  S S S  S  S S S  S  S
|-----------------------||--9----------9----------7---------7---------|
|-----------------------||o---10---------10---------9---------9-------|
|-----------------------||o------12---------12--------10--------10----|
|-(0)-0-1-1-2-2-2-2-2-2-||----------12---------12--------10--------10-|


   S S S  S S S  S  S S S S S  S S S  S  3x
|--------10-9--------------------7-9-10--||
|-10-7--------9-10--------7-9-----------o||
|------8--------------7-8-----10--------o||
|------------------10--------------------||


                                  |---6----|
   S S S  S S  S  S  S   E  S  S  S  S  E  E
|----9------9----------/16-------------------|
|-10---9-10---10-----------17-15-14----------|
|----------------12-12--------------17-15-14-|
|--------------------------------------------|


    E  T  T  S  S S  S S  S  S  S  S  E  S  S
|----------------------------------------------|
|-/17-15-14-15-15---14---14-15-14-14-17-14-17--|
|----------------------------------------------|
|----------------------------------------------|


   S S
|-------------|---------|---------|----|
|-14----------|---------|---------|----|
|-------------|---------|---------|----|
|-------------|---------|---------|----|


Duration Legend
---------------
W - whole; H - half; Q - quarter; E - 8th; S - 16th; T - 32nd; X - 64th; a - acciaccatura
+ - note tied to previous; . - note dotted; .. - note double dotted
Uncapitalized letters represent notes that are staccato (1/2 duration)
Irregular groupings are notated above the duration line
Duration letters will always appear directly above the note/fret number it represents the
duration for.  Duration letters with no fret number below them represent rests.  Multi-
bar rests are notated in the form Wxn, where n is the number of bars to rest for.  Low
melody durations appear below the staff

Tablature Legend
----------------
 h   - hammer-on
 p   - pull-off
 b   - bend
 pb  - pre-bend
 r   - bend release (if no number after the r, then release immediately)
 /\  - slide into or out of (from/to "nowhere")
 s   - legato slide
 S   - shift slide
  - natural harmonic
[n]  - artificial harmonic
n(n) - tapped harmonic
 ~   - vibrato
 tr  - trill
 T   - tap
 TP  - trem. picking
 PM  - palm muting
\n/  - tremolo bar dip; n = amount to dip
 \n  - tremolo bar down
 n/  - tremolo bar up
/n\  - tremolo bar inverted dip
 =   - hold bend; also acts as connecting device for hammers/pulls
 <>  - volume swell (louder/softer)
 x   - on rhythm slash represents muted slash
 o   - on rhythm slash represents single note slash

Misc Legend
-----------
 |  - bar
||  - double bar
||o - repeat start
o|| - repeat end
*|  - double bar (ending)
 :  - bar (freetime)
 $  - Segno
 &  - Coda
Tempo markers -  = BPM(8/16=s8/s16), where s8 = swing 8ths, s16 = swing 16ths


Добавлено: 14.03.2012
Другие материалы по этой песне:

Страница создана 14.03.2012
http://primanota.ru/greg-howe/direct-injection-chords.htm
Привет, Гость.
Предлагаем пройти революционный курс по гитаре.
Подарок от PrimaNota.Ru, забирай!