PrimaNota.ru - самый крупный в мире бесплатный архив песенных текстов, аккордов, табулатур и нот


Greg Allman - Midnight Rider - таба, видео

Регистрация Запомнить меня
Войти через:  Facebook Google Twitter Vk Yandex Mail.ru

Greg Allman - Midnight Rider - таба, видео

Печатать
Просмотров: 178
Авторы музыки: Gregg Allman
Авторы текста: Robert Kim Payne, Gregg Allman
this is Midnight Rider from the Greg Allman Laid Back album

Riff played during most of the song
                              Dsus
e-------------------------------------|
B----------------------------3--3--3--|
G----------------------------2--0--2--|
D--------------0h3po------------------|
A------0h3po--------------------------|
E-------------------------------------|

Chorus
Fadd?
e--0----0----0----0-|
B--3----3----3----3-|
G--2----2----2----2-|
D--3----3----3----3-|
A--0----0----0----0-|
E--0----0----0----0-|
 Not gonna let em catch me no

Cadd9
e--0----0----0----0-|
B--3----3----3----3-|
G--0----0----0----0-|
D--2----2----2----2-|
A--3----3----3----3-|
E--x----x----x----x-|
Not gonna let em catch the Midnight Rider

then back to beginning riff
comments please
Добавлено: 01.03.2012
Другие материалы по этой песне:
  • Аккорды и текст

Страница создана 01.03.2012
http://primanota.ru/greg-allman/midnight-rider-chords.htm
Привет, Гость.
Предлагаем пройти революционный курс по гитаре.
Подарок от PrimaNota.Ru, забирай!