PrimaNota.ru - самый крупный в мире бесплатный архив песенных текстов, аккордов, табулатур и нот


Greenwheel - Louder Than Words - текст песни, бас-таба, видео

Регистрация Запомнить меня
Войти через:  Facebook Google Twitter Vk Yandex Mail.ru

Greenwheel - Louder Than Words - текст песни, бас-таба, видео

Печатать
Просмотров: 131
Уроки эстрадного вокала в Санкт-Петербурге
-------------------------------------------------------------------------------
			     Louder than Words - Greewheel
-------------------------------------------------------------------------------

Tabbed By : _godsmack_
e-mail: pearson1991@hotmail.com

Tuning: G D A D
Great song by a not so well known band, song is sort of easy to follow if you listen to 
and has a decent bass part considering what most rock songs use. Timing might be off.

      Intro  [:12 = :20]
G|-------------------------------------------------------------------------|
D|-------------------------------------------------------------------------|
A|-------------------------------------------------------------------------|
D|-0-000-0-000-0-000-0-2-4-444-444-4-444-4-4-2-4-0-000-0-000-0-000-0-2-----|

          Verse [:21 = :45]                      1st   2nd
G|----|-------|-------|------------|------------|----||-------|------------|
D|----|-------|-4-2---|------------|------------|---.||--2----|------------|
A|----|---0-2-|------2|--2---------|----0-0-2---|---.||-----.-|------------|
D|-0~-|-------|-------|-----2-22-4-|--4-------2-|-4--||-----2-|------------|

          Chorus [:48 = 1:06]
G|-------|--------------|--------|---------------|-------------------------|
D|-------|--------------|--------|-----2-----2-2-|-------------------------|
A|-----0-|--------------|------0-|-2------2------|-5-555-5-555-5-555-5-7---|
D|-0--2--|-2-2--4-4--42-|0---2---|---------------|-------------------------|

         Chorus [cont.]
G|-------------------------------------------------------------------------|
D|-------------------------------------------------------------------------|
A|-------------------------------------------------------------------------|
D|-4-444-4-444-4-444-22----------------------------------------------------|

  Verse [1:07 = 1:30]                      1st   2nd
G|----|-------|-------|------------|------------|----||-------|------------|
D|----|-------|-4-2---|------------|------------|---.||--2----|------------|
A|----|---0-2-|------2|--2---------|----0-0-2---|---.||-----.-|------------|
D|-0~-|-------|-------|-----2-22-4-|--4-------2-|-4--||-----2-|------------|

        Chorus [1:31 = 1:54]
G|-------|--------------|--------|---------------|-------------------------|
D|-------|--------------|--------|-----2-----2-2-|-------------------------|
A|-----0-|--------------|------0-|-2------2------|-5-555-5-555-5-555-5-7---|
D|-0--2--|-2-2--4-4--42-|0---2---|---------------|-------------------------|

         Chorus [cont.]
G|----------------------|--------------------------------------------------|
D|----------------------|--------------------------------------------------|
A|----------------------|--------------------------------------------------|
D|-4-444-4-444-4-444-22-|-0-000-0-000-0-000-0-2-4-444-4-444-4-444-4-444----|

          Bridge [1:55 = 2:07]
G|--------------||---------------||---------------||-----------------------|
D|-------------.||.-------------.||.-------------.||-----------------------|
A|-4-4-2-5-2-4-.||.-------------.||.-4-4-2-5-2-4-.||--------------------.--|
D|--------------||--4-4-2-0-2-4--||---------------||-4-4-2-2-4-4-2-2-22-2--|

         Chorus [2:09 = end]
G|-------|--------------|--------|---------------|-------------------------|
D|-------|--------------|--------|-----2-----2-2-|-------------------------|
A|-----0-|--------------|------0-|-2------2------|-------------------------|
D|-0--2--|-2-2--4-4--42-|0---2---|---------------|-------------------------|

G|-------|-------|------------|-------|-------|---------|------------------|
D|-------|-------|------------|-------|-------|---------|---22-------------|
A|-------|-0-000-|------------|-------|-0-000-|-2-------|-2----------------|
D|-0-000-|-------|-2-222-2-44-|-0-000-|-------|---2-2-2-|--------0~--------|
Добавлено: 04.07.2012
Другие материалы по этой песне:
  • Аккорды и текст

Страница создана 23.02.2012
http://primanota.ru/greenwheel/louder-than-words-chords.htm
Привет, Гость.
Предлагаем пройти революционный курс по гитаре.
Подарок от PrimaNota.Ru, забирай!